ISO-10303-21;
HEADER;
FILE_DESCRIPTION(('STEP AP214'),'1');
FILE_NAME('NB0403C7_0.7ISO_AC-B.stp','2022-04-05T08:27:42',(' '),(' '),'Spatial InterOp 3D',' ',' ');
FILE_SCHEMA(('AUTOMOTIVE_DESIGN { 1 0 10303 214 1 1 1 1 }'));
ENDSEC;
DATA;
#1=MECHANICAL_DESIGN_GEOMETRIC_PRESENTATION_REPRESENTATION(' ',(#12,#13,#14),#8);
#2=PRODUCT_DEFINITION_CONTEXT('',#15,'design');
#3=APPLICATION_PROTOCOL_DEFINITION('INTERNATIONAL STANDARD','automotive_design',1994,#15);
#4=PRODUCT_CATEGORY_RELATIONSHIP('NONE','NONE',#16,#17);
#5=SHAPE_DEFINITION_REPRESENTATION(#18,#19);
#6=SHAPE_DEFINITION_REPRESENTATION(#18,#20);
#7=SHAPE_DEFINITION_REPRESENTATION(#18,#21);
#8= (GEOMETRIC_REPRESENTATION_CONTEXT(3)GLOBAL_UNCERTAINTY_ASSIGNED_CONTEXT((#24))GLOBAL_UNIT_ASSIGNED_CONTEXT((#26,#27,#28))REPRESENTATION_CONTEXT('NONE','WORKSPACE'));
#12=STYLED_ITEM('',(#30),#31);
#13=STYLED_ITEM('',(#32),#33);
#14=STYLED_ITEM('',(#34),#35);
#15=APPLICATION_CONTEXT(' ');
#16=PRODUCT_CATEGORY('part','NONE');
#17=PRODUCT_RELATED_PRODUCT_CATEGORY('detail',' ',(#36));
#18=PRODUCT_DEFINITION_SHAPE('NONE','NONE',#37);
#19=ADVANCED_BREP_SHAPE_REPRESENTATION('1',(#31,#38),#8);
#20=ADVANCED_BREP_SHAPE_REPRESENTATION('2',(#33,#39),#8);
#21=ADVANCED_BREP_SHAPE_REPRESENTATION('3',(#35,#40),#8);
#24=UNCERTAINTY_MEASURE_WITH_UNIT(LENGTH_MEASURE(1.0E-06),#26,'','');
#26= (CONVERSION_BASED_UNIT('MILLIMETRE',#43)LENGTH_UNIT()NAMED_UNIT(#46));
#27= (NAMED_UNIT(#48)PLANE_ANGLE_UNIT()SI_UNIT($,.RADIAN.));
#28= (NAMED_UNIT(#48)SOLID_ANGLE_UNIT()SI_UNIT($,.STERADIAN.));
#30=PRESENTATION_STYLE_ASSIGNMENT((#54));
#31=MANIFOLD_SOLID_BREP('1',#55);
#32=PRESENTATION_STYLE_ASSIGNMENT((#56));
#33=MANIFOLD_SOLID_BREP('2',#57);
#34=PRESENTATION_STYLE_ASSIGNMENT((#58));
#35=MANIFOLD_SOLID_BREP('3',#59);
#36=PRODUCT('1','','PART--DESC',(#60));
#37=PRODUCT_DEFINITION('','NONE',#61,#2);
#38=AXIS2_PLACEMENT_3D('',#62,#63,#64);
#39=AXIS2_PLACEMENT_3D('',#65,#66,#67);
#40=AXIS2_PLACEMENT_3D('',#68,#69,#70);
#43=LENGTH_MEASURE_WITH_UNIT(LENGTH_MEASURE(1.0),#71);
#46=DIMENSIONAL_EXPONENTS(1.0,0.0,0.0,0.0,0.0,0.0,0.0);
#48=DIMENSIONAL_EXPONENTS(0.0,0.0,0.0,0.0,0.0,0.0,0.0);
#54=SURFACE_STYLE_USAGE(.BOTH.,#72);
#55=CLOSED_SHELL('',(#73,#74,#75,#76));
#56=SURFACE_STYLE_USAGE(.BOTH.,#77);
#57=CLOSED_SHELL('',(#78,#79,#80,#81,#82,#83,#84,#85));
#58=SURFACE_STYLE_USAGE(.BOTH.,#86);
#59=CLOSED_SHELL('',(#87,#88,#89,#90));
#60=PRODUCT_CONTEXT('',#15,'mechanical');
#61=PRODUCT_DEFINITION_FORMATION_WITH_SPECIFIED_SOURCE(' ','NONE',#36,.NOT_KNOWN.);
#62=CARTESIAN_POINT('',(0.0,0.0,0.0));
#63=DIRECTION('',(0.0,0.0,1.0));
#64=DIRECTION('',(1.0,0.0,0.0));
#65=CARTESIAN_POINT('',(0.0,0.0,0.0));
#66=DIRECTION('',(0.0,0.0,1.0));
#67=DIRECTION('',(1.0,0.0,0.0));
#68=CARTESIAN_POINT('',(0.0,0.0,0.0));
#69=DIRECTION('',(0.0,0.0,1.0));
#70=DIRECTION('',(1.0,0.0,0.0));
#71= (NAMED_UNIT(#46)LENGTH_UNIT()SI_UNIT(.MILLI.,.METRE.));
#72=SURFACE_SIDE_STYLE('',(#92));
#73=ADVANCED_FACE('',(#93),#94,.T.);
#74=ADVANCED_FACE('',(#95),#96,.T.);
#75=ADVANCED_FACE('',(#97),#98,.T.);
#76=ADVANCED_FACE('',(#99),#100,.T.);
#77=SURFACE_SIDE_STYLE('',(#101));
#78=ADVANCED_FACE('',(#102),#103,.T.);
#79=ADVANCED_FACE('',(#104),#105,.T.);
#80=ADVANCED_FACE('',(#106),#107,.T.);
#81=ADVANCED_FACE('',(#108),#109,.T.);
#82=ADVANCED_FACE('',(#110),#111,.T.);
#83=ADVANCED_FACE('',(#112),#113,.T.);
#84=ADVANCED_FACE('',(#114),#115,.T.);
#85=ADVANCED_FACE('',(#116),#117,.T.);
#86=SURFACE_SIDE_STYLE('',(#118));
#87=ADVANCED_FACE('',(#119),#120,.T.);
#88=ADVANCED_FACE('',(#121),#122,.T.);
#89=ADVANCED_FACE('',(#123),#124,.T.);
#90=ADVANCED_FACE('',(#125),#126,.F.);
#92=SURFACE_STYLE_FILL_AREA(#127);
#93=FACE_OUTER_BOUND('',#128,.T.);
#94=CYLINDRICAL_SURFACE('',#129,1.5);
#95=FACE_OUTER_BOUND('',#130,.T.);
#96=CYLINDRICAL_SURFACE('',#131,1.5);
#97=FACE_OUTER_BOUND('',#132,.T.);
#98=PLANE('',#133);
#99=FACE_OUTER_BOUND('',#134,.T.);
#100=PLANE('',#135);
#101=SURFACE_STYLE_FILL_AREA(#136);
#102=FACE_OUTER_BOUND('',#137,.T.);
#103=CONICAL_SURFACE('',#138,1.6,0.785398163397448);
#104=FACE_OUTER_BOUND('',#139,.T.);
#105=CYLINDRICAL_SURFACE('',#140,2.0);
#106=FACE_OUTER_BOUND('',#141,.T.);
#107=CONICAL_SURFACE('',#142,1.5,0.785398163397448);
#108=FACE_OUTER_BOUND('',#143,.T.);
#109=CONICAL_SURFACE('',#144,1.5,0.785398163397448);
#110=FACE_OUTER_BOUND('',#145,.T.);
#111=CYLINDRICAL_SURFACE('',#146,2.0);
#112=FACE_OUTER_BOUND('',#147,.T.);
#113=PLANE('',#148);
#114=FACE_OUTER_BOUND('',#149,.T.);
#115=CONICAL_SURFACE('',#150,1.6,0.785398163397448);
#116=FACE_OUTER_BOUND('',#151,.T.);
#117=PLANE('',#152);
#118=SURFACE_STYLE_FILL_AREA(#153);
#119=FACE_OUTER_BOUND('',#154,.T.);
#120=CYLINDRICAL_SURFACE('',#155,1.5);
#121=FACE_OUTER_BOUND('',#156,.T.);
#122=CYLINDRICAL_SURFACE('',#157,1.5);
#123=FACE_OUTER_BOUND('',#158,.T.);
#124=PLANE('',#159);
#125=FACE_OUTER_BOUND('',#160,.T.);
#126=PLANE('',#161);
#127=FILL_AREA_STYLE('',(#162));
#128=EDGE_LOOP('',(#163,#164,#165,#166));
#129=AXIS2_PLACEMENT_3D('',#167,#168,#169);
#130=EDGE_LOOP('',(#170,#171,#172,#173));
#131=AXIS2_PLACEMENT_3D('',#174,#175,#176);
#132=EDGE_LOOP('',(#177,#178));
#133=AXIS2_PLACEMENT_3D('',#179,#180,#181);
#134=EDGE_LOOP('',(#182,#183));
#135=AXIS2_PLACEMENT_3D('',#184,#185,#186);
#136=FILL_AREA_STYLE('',(#187));
#137=EDGE_LOOP('',(#188,#189,#190,#191));
#138=AXIS2_PLACEMENT_3D('',#192,#193,#194);
#139=EDGE_LOOP('',(#195,#196,#197,#198));
#140=AXIS2_PLACEMENT_3D('',#199,#200,#201);
#141=EDGE_LOOP('',(#202,#203,#204,#205));
#142=AXIS2_PLACEMENT_3D('',#206,#207,#208);
#143=EDGE_LOOP('',(#209,#210,#211,#212));
#144=AXIS2_PLACEMENT_3D('',#213,#214,#215);
#145=EDGE_LOOP('',(#216,#217,#218,#219));
#146=AXIS2_PLACEMENT_3D('',#220,#221,#222);
#147=EDGE_LOOP('',(#223,#224));
#148=AXIS2_PLACEMENT_3D('',#225,#226,#227);
#149=EDGE_LOOP('',(#228,#229,#230,#231));
#150=AXIS2_PLACEMENT_3D('',#232,#233,#234);
#151=EDGE_LOOP('',(#235,#236));
#152=AXIS2_PLACEMENT_3D('',#237,#238,#239);
#153=FILL_AREA_STYLE('',(#240));
#154=EDGE_LOOP('',(#241,#242,#243,#244));
#155=AXIS2_PLACEMENT_3D('',#245,#246,#247);
#156=EDGE_LOOP('',(#248,#249,#250,#251));
#157=AXIS2_PLACEMENT_3D('',#252,#253,#254);
#158=EDGE_LOOP('',(#255,#256));
#159=AXIS2_PLACEMENT_3D('',#257,#258,#259);
#160=EDGE_LOOP('',(#260,#261));
#161=AXIS2_PLACEMENT_3D('',#262,#263,#264);
#162=FILL_AREA_STYLE_COLOUR('',#265);
#163=ORIENTED_EDGE('',*,*,#266,.F.);
#164=ORIENTED_EDGE('',*,*,#267,.F.);
#165=ORIENTED_EDGE('',*,*,#268,.F.);
#166=ORIENTED_EDGE('',*,*,#269,.F.);
#167=CARTESIAN_POINT('',(0.0,0.0,-46.325));
#168=DIRECTION('',(0.0,0.0,-1.0));
#169=DIRECTION('',(1.0,0.0,0.0));
#170=ORIENTED_EDGE('',*,*,#266,.T.);
#171=ORIENTED_EDGE('',*,*,#270,.F.);
#172=ORIENTED_EDGE('',*,*,#268,.T.);
#173=ORIENTED_EDGE('',*,*,#271,.F.);
#174=CARTESIAN_POINT('',(0.0,0.0,-46.325));
#175=DIRECTION('',(0.0,0.0,-1.0));
#176=DIRECTION('',(1.0,0.0,0.0));
#177=ORIENTED_EDGE('',*,*,#271,.T.);
#178=ORIENTED_EDGE('',*,*,#267,.T.);
#179=CARTESIAN_POINT('',(0.0,0.0,-42.65));
#180=DIRECTION('',(0.0,0.0,1.0));
#181=DIRECTION('',(-1.0,0.0,0.0));
#182=ORIENTED_EDGE('',*,*,#269,.T.);
#183=ORIENTED_EDGE('',*,*,#270,.T.);
#184=CARTESIAN_POINT('',(0.0,0.0,-50.0));
#185=DIRECTION('',(0.0,0.0,-1.0));
#186=DIRECTION('',(1.0,0.0,0.0));
#187=FILL_AREA_STYLE_COLOUR('',#272);
#188=ORIENTED_EDGE('',*,*,#273,.F.);
#189=ORIENTED_EDGE('',*,*,#274,.T.);
#190=ORIENTED_EDGE('',*,*,#275,.F.);
#191=ORIENTED_EDGE('',*,*,#276,.T.);
#192=CARTESIAN_POINT('',(0.0,0.0,0.0));
#193=DIRECTION('',(-0.0,-0.0,-1.0));
#194=DIRECTION('',(-1.0,0.0,0.0));
#195=ORIENTED_EDGE('',*,*,#277,.F.);
#196=ORIENTED_EDGE('',*,*,#274,.F.);
#197=ORIENTED_EDGE('',*,*,#278,.F.);
#198=ORIENTED_EDGE('',*,*,#279,.F.);
#199=CARTESIAN_POINT('',(0.0,0.0,-21.15));
#200=DIRECTION('',(0.0,0.0,-1.0));
#201=DIRECTION('',(1.0,0.0,0.0));
#202=ORIENTED_EDGE('',*,*,#280,.F.);
#203=ORIENTED_EDGE('',*,*,#281,.T.);
#204=ORIENTED_EDGE('',*,*,#282,.F.);
#205=ORIENTED_EDGE('',*,*,#283,.T.);
#206=CARTESIAN_POINT('',(0.0,0.0,-42.3));
#207=DIRECTION('',(-0.0,-0.0,1.0));
#208=DIRECTION('',(-1.0,0.0,0.0));
#209=ORIENTED_EDGE('',*,*,#280,.T.);
#210=ORIENTED_EDGE('',*,*,#284,.T.);
#211=ORIENTED_EDGE('',*,*,#282,.T.);
#212=ORIENTED_EDGE('',*,*,#279,.T.);
#213=CARTESIAN_POINT('',(0.0,0.0,-42.3));
#214=DIRECTION('',(-0.0,-0.0,1.0));
#215=DIRECTION('',(-1.0,0.0,0.0));
#216=ORIENTED_EDGE('',*,*,#277,.T.);
#217=ORIENTED_EDGE('',*,*,#281,.F.);
#218=ORIENTED_EDGE('',*,*,#278,.T.);
#219=ORIENTED_EDGE('',*,*,#285,.F.);
#220=CARTESIAN_POINT('',(0.0,0.0,-21.15));
#221=DIRECTION('',(0.0,0.0,-1.0));
#222=DIRECTION('',(1.0,0.0,0.0));
#223=ORIENTED_EDGE('',*,*,#283,.F.);
#224=ORIENTED_EDGE('',*,*,#284,.F.);
#225=CARTESIAN_POINT('',(0.0,0.0,-42.3));
#226=DIRECTION('',(0.0,0.0,-1.0));
#227=DIRECTION('',(1.0,0.0,0.0));
#228=ORIENTED_EDGE('',*,*,#273,.T.);
#229=ORIENTED_EDGE('',*,*,#286,.T.);
#230=ORIENTED_EDGE('',*,*,#275,.T.);
#231=ORIENTED_EDGE('',*,*,#285,.T.);
#232=CARTESIAN_POINT('',(0.0,0.0,0.0));
#233=DIRECTION('',(-0.0,-0.0,-1.0));
#234=DIRECTION('',(-1.0,0.0,0.0));
#235=ORIENTED_EDGE('',*,*,#276,.F.);
#236=ORIENTED_EDGE('',*,*,#286,.F.);
#237=CARTESIAN_POINT('',(0.0,0.0,0.0));
#238=DIRECTION('',(0.0,0.0,1.0));
#239=DIRECTION('',(-1.0,0.0,0.0));
#240=FILL_AREA_STYLE_COLOUR('',#287);
#241=ORIENTED_EDGE('',*,*,#288,.F.);
#242=ORIENTED_EDGE('',*,*,#289,.F.);
#243=ORIENTED_EDGE('',*,*,#290,.F.);
#244=ORIENTED_EDGE('',*,*,#291,.T.);
#245=CARTESIAN_POINT('',(0.0,0.0,-42.3));
#246=DIRECTION('',(0.0,0.0,-1.0));
#247=DIRECTION('',(-1.0,0.0,0.0));
#248=ORIENTED_EDGE('',*,*,#288,.T.);
#249=ORIENTED_EDGE('',*,*,#292,.T.);
#250=ORIENTED_EDGE('',*,*,#290,.T.);
#251=ORIENTED_EDGE('',*,*,#293,.F.);
#252=CARTESIAN_POINT('',(0.0,0.0,-42.3));
#253=DIRECTION('',(0.0,0.0,-1.0));
#254=DIRECTION('',(-1.0,0.0,0.0));
#255=ORIENTED_EDGE('',*,*,#291,.F.);
#256=ORIENTED_EDGE('',*,*,#292,.F.);
#257=CARTESIAN_POINT('',(0.0,0.0,-42.65));
#258=DIRECTION('',(0.0,0.0,-1.0));
#259=DIRECTION('',(1.0,0.0,0.0));
#260=ORIENTED_EDGE('',*,*,#289,.T.);
#261=ORIENTED_EDGE('',*,*,#293,.T.);
#262=CARTESIAN_POINT('',(0.0,0.0,-42.3));
#263=DIRECTION('',(0.0,0.0,-1.0));
#264=DIRECTION('',(1.0,0.0,0.0));
#265=COLOUR_RGB('',0.0,1.0,0.0);
#266=EDGE_CURVE('',#294,#295,#296,.T.);
#267=EDGE_CURVE('',#297,#294,#298,.T.);
#268=EDGE_CURVE('',#299,#297,#300,.T.);
#269=EDGE_CURVE('',#295,#299,#301,.T.);
#270=EDGE_CURVE('',#299,#295,#302,.T.);
#271=EDGE_CURVE('',#294,#297,#303,.T.);
#272=COLOUR_RGB('',0.756862759590149,0.756862759590149,0.756862759590149);
#273=EDGE_CURVE('',#304,#305,#306,.T.);
#274=EDGE_CURVE('',#304,#307,#308,.T.);
#275=EDGE_CURVE('',#309,#307,#310,.T.);
#276=EDGE_CURVE('',#309,#305,#311,.T.);
#277=EDGE_CURVE('',#307,#312,#313,.T.);
#278=EDGE_CURVE('',#314,#304,#315,.T.);
#279=EDGE_CURVE('',#312,#314,#316,.T.);
#280=EDGE_CURVE('',#314,#317,#318,.T.);
#281=EDGE_CURVE('',#314,#312,#319,.T.);
#282=EDGE_CURVE('',#320,#312,#321,.T.);
#283=EDGE_CURVE('',#320,#317,#322,.T.);
#284=EDGE_CURVE('',#317,#320,#323,.T.);
#285=EDGE_CURVE('',#307,#304,#324,.T.);
#286=EDGE_CURVE('',#305,#309,#325,.T.);
#287=COLOUR_RGB('',0.443137258291245,0.443137258291245,0.776470601558685);
#288=EDGE_CURVE('',#326,#327,#328,.T.);
#289=EDGE_CURVE('',#329,#326,#330,.T.);
#290=EDGE_CURVE('',#331,#329,#332,.T.);
#291=EDGE_CURVE('',#331,#327,#333,.T.);
#292=EDGE_CURVE('',#327,#331,#334,.T.);
#293=EDGE_CURVE('',#326,#329,#335,.T.);
#294=VERTEX_POINT('',#336);
#295=VERTEX_POINT('',#337);
#296=LINE('',#338,#339);
#297=VERTEX_POINT('',#340);
#298=CIRCLE('',#341,1.5);
#299=VERTEX_POINT('',#342);
#300=LINE('',#343,#344);
#301=CIRCLE('',#345,1.5);
#302=CIRCLE('',#346,1.5);
#303=CIRCLE('',#347,1.5);
#304=VERTEX_POINT('',#348);
#305=VERTEX_POINT('',#349);
#306=LINE('',#350,#351);
#307=VERTEX_POINT('',#352);
#308=CIRCLE('',#353,2.0);
#309=VERTEX_POINT('',#354);
#310=LINE('',#355,#356);
#311=CIRCLE('',#357,1.6);
#312=VERTEX_POINT('',#358);
#313=LINE('',#359,#360);
#314=VERTEX_POINT('',#361);
#315=LINE('',#362,#363);
#316=CIRCLE('',#364,2.0);
#317=VERTEX_POINT('',#365);
#318=LINE('',#366,#367);
#319=CIRCLE('',#368,2.0);
#320=VERTEX_POINT('',#369);
#321=LINE('',#370,#371);
#322=CIRCLE('',#372,1.5);
#323=CIRCLE('',#373,1.5);
#324=CIRCLE('',#374,2.0);
#325=CIRCLE('',#375,1.6);
#326=VERTEX_POINT('',#376);
#327=VERTEX_POINT('',#377);
#328=LINE('',#378,#379);
#329=VERTEX_POINT('',#380);
#330=CIRCLE('',#381,1.5);
#331=VERTEX_POINT('',#382);
#332=LINE('',#383,#384);
#333=CIRCLE('',#385,1.5);
#334=CIRCLE('',#386,1.5);
#335=CIRCLE('',#387,1.5);
#336=CARTESIAN_POINT('',(1.5,0.0,-42.65));
#337=CARTESIAN_POINT('',(1.5,0.0,-50.0));
#338=CARTESIAN_POINT('',(1.5,1.83697019872103E-16,-46.325));
#339=VECTOR('',#388,1.0);
#340=CARTESIAN_POINT('',(-1.5,-1.83697019872103E-16,-42.65));
#341=AXIS2_PLACEMENT_3D('',#389,#390,#391);
#342=CARTESIAN_POINT('',(-1.5,-1.83697019872103E-16,-50.0));
#343=CARTESIAN_POINT('',(-1.5,-1.83697019872103E-16,-46.325));
#344=VECTOR('',#392,1.0);
#345=AXIS2_PLACEMENT_3D('',#393,#394,#395);
#346=AXIS2_PLACEMENT_3D('',#396,#397,#398);
#347=AXIS2_PLACEMENT_3D('',#399,#400,#401);
#348=CARTESIAN_POINT('',(-2.0,-2.4492935982947E-16,-0.399999999999999));
#349=CARTESIAN_POINT('',(-1.6,1.95943487863576E-16,0.0));
#350=CARTESIAN_POINT('',(-1.6,1.95943487863576E-16,0.0));
#351=VECTOR('',#402,1.0);
#352=CARTESIAN_POINT('',(2.0,2.4492935982947E-16,-0.399999999999999));
#353=AXIS2_PLACEMENT_3D('',#403,#404,#405);
#354=CARTESIAN_POINT('',(1.6,-1.95943487863576E-16,0.0));
#355=CARTESIAN_POINT('',(1.6,-1.95943487863576E-16,0.0));
#356=VECTOR('',#406,1.0);
#357=AXIS2_PLACEMENT_3D('',#407,#408,#409);
#358=CARTESIAN_POINT('',(2.0,-2.44929359829471E-16,-41.8));
#359=CARTESIAN_POINT('',(2.0,2.44929359829471E-16,-21.15));
#360=VECTOR('',#410,1.0);
#361=CARTESIAN_POINT('',(-2.0,-2.4492935982947E-16,-41.8));
#362=CARTESIAN_POINT('',(-2.0,-2.44929359829471E-16,-21.15));
#363=VECTOR('',#411,1.0);
#364=AXIS2_PLACEMENT_3D('',#412,#413,#414);
#365=CARTESIAN_POINT('',(-1.5,-1.83697019872103E-16,-42.3));
#366=CARTESIAN_POINT('',(-1.5,-1.83697019872103E-16,-42.3));
#367=VECTOR('',#415,1.0);
#368=AXIS2_PLACEMENT_3D('',#416,#417,#418);
#369=CARTESIAN_POINT('',(1.5,1.83697019872103E-16,-42.3));
#370=CARTESIAN_POINT('',(1.5,1.83697019872103E-16,-42.3));
#371=VECTOR('',#419,1.0);
#372=AXIS2_PLACEMENT_3D('',#420,#421,#422);
#373=AXIS2_PLACEMENT_3D('',#423,#424,#425);
#374=AXIS2_PLACEMENT_3D('',#426,#427,#428);
#375=AXIS2_PLACEMENT_3D('',#429,#430,#431);
#376=CARTESIAN_POINT('',(-1.5,-1.83697019872103E-16,-42.3));
#377=CARTESIAN_POINT('',(-1.5,-1.83697019872103E-16,-42.65));
#378=CARTESIAN_POINT('',(-1.5,-1.83697019872103E-16,-42.3));
#379=VECTOR('',#432,1.0);
#380=CARTESIAN_POINT('',(1.5,1.83697019872103E-16,-42.3));
#381=AXIS2_PLACEMENT_3D('',#433,#434,#435);
#382=CARTESIAN_POINT('',(1.5,1.83697019872103E-16,-42.65));
#383=CARTESIAN_POINT('',(1.5,1.83697019872103E-16,-42.3));
#384=VECTOR('',#436,1.0);
#385=AXIS2_PLACEMENT_3D('',#437,#438,#439);
#386=AXIS2_PLACEMENT_3D('',#440,#441,#442);
#387=AXIS2_PLACEMENT_3D('',#443,#444,#445);
#388=DIRECTION('',(0.0,0.0,-1.0));
#389=CARTESIAN_POINT('',(0.0,0.0,-42.65));
#390=DIRECTION('',(0.0,0.0,1.0));
#391=DIRECTION('',(1.0,0.0,0.0));
#392=DIRECTION('',(-0.0,-0.0,1.0));
#393=CARTESIAN_POINT('',(0.0,0.0,-50.0));
#394=DIRECTION('',(0.0,0.0,-1.0));
#395=DIRECTION('',(1.0,0.0,0.0));
#396=CARTESIAN_POINT('',(0.0,0.0,-50.0));
#397=DIRECTION('',(0.0,0.0,-1.0));
#398=DIRECTION('',(1.0,0.0,0.0));
#399=CARTESIAN_POINT('',(0.0,0.0,-42.65));
#400=DIRECTION('',(0.0,0.0,1.0));
#401=DIRECTION('',(1.0,0.0,0.0));
#402=DIRECTION('',(0.707106781186548,-8.65956056235493E-17,0.707106781186548));
#403=CARTESIAN_POINT('',(0.0,0.0,-0.399999999999999));
#404=DIRECTION('',(0.0,0.0,1.0));
#405=DIRECTION('',(-1.0,0.0,0.0));
#406=DIRECTION('',(0.707106781186548,-8.65956056235493E-17,-0.707106781186548));
#407=CARTESIAN_POINT('',(0.0,0.0,0.0));
#408=DIRECTION('',(0.0,0.0,-1.0));
#409=DIRECTION('',(-1.0,0.0,0.0));
#410=DIRECTION('',(0.0,0.0,-1.0));
#411=DIRECTION('',(-0.0,-0.0,1.0));
#412=CARTESIAN_POINT('',(0.0,0.0,-41.8));
#413=DIRECTION('',(0.0,0.0,-1.0));
#414=DIRECTION('',(-1.0,0.0,0.0));
#415=DIRECTION('',(0.707106781186547,8.65956056235493E-17,-0.707106781186548));
#416=CARTESIAN_POINT('',(0.0,0.0,-41.8));
#417=DIRECTION('',(0.0,0.0,-1.0));
#418=DIRECTION('',(-1.0,0.0,0.0));
#419=DIRECTION('',(0.707106781186547,8.65956056235493E-17,0.707106781186548));
#420=CARTESIAN_POINT('',(0.0,0.0,-42.3));
#421=DIRECTION('',(0.0,0.0,1.0));
#422=DIRECTION('',(-1.0,0.0,0.0));
#423=CARTESIAN_POINT('',(0.0,0.0,-42.3));
#424=DIRECTION('',(0.0,0.0,1.0));
#425=DIRECTION('',(-1.0,0.0,0.0));
#426=CARTESIAN_POINT('',(0.0,0.0,-0.399999999999999));
#427=DIRECTION('',(0.0,0.0,1.0));
#428=DIRECTION('',(-1.0,0.0,0.0));
#429=CARTESIAN_POINT('',(0.0,0.0,0.0));
#430=DIRECTION('',(0.0,0.0,-1.0));
#431=DIRECTION('',(-1.0,0.0,0.0));
#432=DIRECTION('',(0.0,0.0,-1.0));
#433=CARTESIAN_POINT('',(0.0,0.0,-42.3));
#434=DIRECTION('',(0.0,0.0,1.0));
#435=DIRECTION('',(-1.0,0.0,0.0));
#436=DIRECTION('',(-0.0,-0.0,1.0));
#437=CARTESIAN_POINT('',(0.0,0.0,-42.65));
#438=DIRECTION('',(0.0,0.0,1.0));
#439=DIRECTION('',(-1.0,0.0,0.0));
#440=CARTESIAN_POINT('',(0.0,0.0,-42.65));
#441=DIRECTION('',(0.0,0.0,1.0));
#442=DIRECTION('',(-1.0,0.0,0.0));
#443=CARTESIAN_POINT('',(0.0,0.0,-42.3));
#444=DIRECTION('',(0.0,0.0,1.0));
#445=DIRECTION('',(-1.0,0.0,0.0));
ENDSEC;
END-ISO-10303-21;
