ISO-10303-21;
HEADER;
FILE_DESCRIPTION(('STEP AP214'),'1');
FILE_NAME('NBK08075C32_1.5ISO_AC.stp','2022-06-21T08:23:23',(' '),(' '),'Spatial InterOp 3D',' ',' ');
FILE_SCHEMA(('AUTOMOTIVE_DESIGN { 1 0 10303 214 1 1 1 1 }'));
ENDSEC;
DATA;
#1=MECHANICAL_DESIGN_GEOMETRIC_PRESENTATION_REPRESENTATION(' ',(#12,#13,#14),#8);
#2=PRODUCT_DEFINITION_CONTEXT('',#15,'design');
#3=APPLICATION_PROTOCOL_DEFINITION('INTERNATIONAL STANDARD','automotive_design',1994,#15);
#4=PRODUCT_CATEGORY_RELATIONSHIP('NONE','NONE',#16,#17);
#5=SHAPE_DEFINITION_REPRESENTATION(#18,#19);
#6=SHAPE_DEFINITION_REPRESENTATION(#18,#20);
#7=SHAPE_DEFINITION_REPRESENTATION(#18,#21);
#8= (GEOMETRIC_REPRESENTATION_CONTEXT(3)GLOBAL_UNCERTAINTY_ASSIGNED_CONTEXT((#24))GLOBAL_UNIT_ASSIGNED_CONTEXT((#26,#27,#28))REPRESENTATION_CONTEXT('NONE','WORKSPACE'));
#12=STYLED_ITEM('',(#30),#31);
#13=STYLED_ITEM('',(#32),#33);
#14=STYLED_ITEM('',(#34),#35);
#15=APPLICATION_CONTEXT(' ');
#16=PRODUCT_CATEGORY('part','NONE');
#17=PRODUCT_RELATED_PRODUCT_CATEGORY('detail',' ',(#36));
#18=PRODUCT_DEFINITION_SHAPE('NONE','NONE',#37);
#19=ADVANCED_BREP_SHAPE_REPRESENTATION('1',(#31,#38),#8);
#20=ADVANCED_BREP_SHAPE_REPRESENTATION('2',(#33,#39),#8);
#21=ADVANCED_BREP_SHAPE_REPRESENTATION('3',(#35,#40),#8);
#24=UNCERTAINTY_MEASURE_WITH_UNIT(LENGTH_MEASURE(1.0E-06),#26,'','');
#26= (CONVERSION_BASED_UNIT('MILLIMETRE',#43)LENGTH_UNIT()NAMED_UNIT(#46));
#27= (NAMED_UNIT(#48)PLANE_ANGLE_UNIT()SI_UNIT($,.RADIAN.));
#28= (NAMED_UNIT(#48)SOLID_ANGLE_UNIT()SI_UNIT($,.STERADIAN.));
#30=PRESENTATION_STYLE_ASSIGNMENT((#54));
#31=MANIFOLD_SOLID_BREP('1',#55);
#32=PRESENTATION_STYLE_ASSIGNMENT((#56));
#33=MANIFOLD_SOLID_BREP('2',#57);
#34=PRESENTATION_STYLE_ASSIGNMENT((#58));
#35=MANIFOLD_SOLID_BREP('3',#59);
#36=PRODUCT('1','','PART--DESC',(#60));
#37=PRODUCT_DEFINITION('','NONE',#61,#2);
#38=AXIS2_PLACEMENT_3D('',#62,#63,#64);
#39=AXIS2_PLACEMENT_3D('',#65,#66,#67);
#40=AXIS2_PLACEMENT_3D('',#68,#69,#70);
#43=LENGTH_MEASURE_WITH_UNIT(LENGTH_MEASURE(1.0),#71);
#46=DIMENSIONAL_EXPONENTS(1.0,0.0,0.0,0.0,0.0,0.0,0.0);
#48=DIMENSIONAL_EXPONENTS(0.0,0.0,0.0,0.0,0.0,0.0,0.0);
#54=SURFACE_STYLE_USAGE(.BOTH.,#72);
#55=CLOSED_SHELL('',(#73,#74,#75,#76,#77,#78,#79,#80,#81,#82));
#56=SURFACE_STYLE_USAGE(.BOTH.,#83);
#57=CLOSED_SHELL('',(#84,#85,#86,#87,#88,#89));
#58=SURFACE_STYLE_USAGE(.BOTH.,#90);
#59=CLOSED_SHELL('',(#91,#92,#93,#94,#95,#96));
#60=PRODUCT_CONTEXT('',#15,'mechanical');
#61=PRODUCT_DEFINITION_FORMATION_WITH_SPECIFIED_SOURCE(' ','NONE',#36,.NOT_KNOWN.);
#62=CARTESIAN_POINT('',(0.0,0.0,0.0));
#63=DIRECTION('',(0.0,0.0,1.0));
#64=DIRECTION('',(1.0,0.0,0.0));
#65=CARTESIAN_POINT('',(0.0,0.0,0.0));
#66=DIRECTION('',(0.0,0.0,1.0));
#67=DIRECTION('',(1.0,0.0,0.0));
#68=CARTESIAN_POINT('',(0.0,0.0,0.0));
#69=DIRECTION('',(0.0,0.0,1.0));
#70=DIRECTION('',(1.0,0.0,0.0));
#71= (NAMED_UNIT(#46)LENGTH_UNIT()SI_UNIT(.MILLI.,.METRE.));
#72=SURFACE_SIDE_STYLE('',(#98));
#73=ADVANCED_FACE('',(#99),#100,.T.);
#74=ADVANCED_FACE('',(#101),#102,.T.);
#75=ADVANCED_FACE('',(#103),#104,.T.);
#76=ADVANCED_FACE('',(#105),#106,.F.);
#77=ADVANCED_FACE('',(#107),#108,.F.);
#78=ADVANCED_FACE('',(#109),#110,.T.);
#79=ADVANCED_FACE('',(#111),#112,.T.);
#80=ADVANCED_FACE('',(#113,#114),#115,.T.);
#81=ADVANCED_FACE('',(#116),#117,.T.);
#82=ADVANCED_FACE('',(#118,#119),#120,.T.);
#83=SURFACE_SIDE_STYLE('',(#121));
#84=ADVANCED_FACE('',(#122),#123,.T.);
#85=ADVANCED_FACE('',(#124),#125,.F.);
#86=ADVANCED_FACE('',(#126),#127,.F.);
#87=ADVANCED_FACE('',(#128),#129,.T.);
#88=ADVANCED_FACE('',(#130,#131),#132,.T.);
#89=ADVANCED_FACE('',(#133,#134),#135,.F.);
#90=SURFACE_SIDE_STYLE('',(#136));
#91=ADVANCED_FACE('',(#137),#138,.T.);
#92=ADVANCED_FACE('',(#139),#140,.F.);
#93=ADVANCED_FACE('',(#141),#142,.F.);
#94=ADVANCED_FACE('',(#143),#144,.T.);
#95=ADVANCED_FACE('',(#145,#146),#147,.T.);
#96=ADVANCED_FACE('',(#148,#149),#150,.F.);
#98=SURFACE_STYLE_FILL_AREA(#151);
#99=FACE_OUTER_BOUND('',#152,.T.);
#100=CONICAL_SURFACE('',#153,3.5,0.785398163397448);
#101=FACE_OUTER_BOUND('',#154,.T.);
#102=CYLINDRICAL_SURFACE('',#155,4.0);
#103=FACE_OUTER_BOUND('',#156,.T.);
#104=CONICAL_SURFACE('',#157,3.75,0.785398163397448);
#105=FACE_OUTER_BOUND('',#158,.T.);
#106=CYLINDRICAL_SURFACE('',#159,0.65);
#107=FACE_OUTER_BOUND('',#160,.T.);
#108=CYLINDRICAL_SURFACE('',#161,0.65);
#109=FACE_OUTER_BOUND('',#162,.T.);
#110=CONICAL_SURFACE('',#163,3.75,0.785398163397448);
#111=FACE_OUTER_BOUND('',#164,.T.);
#112=CYLINDRICAL_SURFACE('',#165,4.0);
#113=FACE_BOUND('',#166,.T.);
#114=FACE_OUTER_BOUND('',#167,.T.);
#115=PLANE('',#168);
#116=FACE_OUTER_BOUND('',#169,.T.);
#117=CONICAL_SURFACE('',#170,3.5,0.785398163397448);
#118=FACE_BOUND('',#171,.T.);
#119=FACE_OUTER_BOUND('',#172,.T.);
#120=PLANE('',#173);
#121=SURFACE_STYLE_FILL_AREA(#174);
#122=FACE_OUTER_BOUND('',#175,.T.);
#123=CYLINDRICAL_SURFACE('',#176,3.75);
#124=FACE_OUTER_BOUND('',#177,.T.);
#125=CYLINDRICAL_SURFACE('',#178,0.65);
#126=FACE_OUTER_BOUND('',#179,.T.);
#127=CYLINDRICAL_SURFACE('',#180,0.65);
#128=FACE_OUTER_BOUND('',#181,.T.);
#129=CYLINDRICAL_SURFACE('',#182,3.75);
#130=FACE_BOUND('',#183,.T.);
#131=FACE_OUTER_BOUND('',#184,.T.);
#132=PLANE('',#185);
#133=FACE_BOUND('',#186,.T.);
#134=FACE_OUTER_BOUND('',#187,.T.);
#135=PLANE('',#188);
#136=SURFACE_STYLE_FILL_AREA(#189);
#137=FACE_OUTER_BOUND('',#190,.T.);
#138=CYLINDRICAL_SURFACE('',#191,3.75);
#139=FACE_OUTER_BOUND('',#192,.T.);
#140=CYLINDRICAL_SURFACE('',#193,0.65);
#141=FACE_OUTER_BOUND('',#194,.T.);
#142=CYLINDRICAL_SURFACE('',#195,0.65);
#143=FACE_OUTER_BOUND('',#196,.T.);
#144=CYLINDRICAL_SURFACE('',#197,3.75);
#145=FACE_BOUND('',#198,.T.);
#146=FACE_OUTER_BOUND('',#199,.T.);
#147=PLANE('',#200);
#148=FACE_BOUND('',#201,.T.);
#149=FACE_OUTER_BOUND('',#202,.T.);
#150=PLANE('',#203);
#151=FILL_AREA_STYLE('',(#204));
#152=EDGE_LOOP('',(#205,#206,#207,#208));
#153=AXIS2_PLACEMENT_3D('',#209,#210,#211);
#154=EDGE_LOOP('',(#212,#213,#214,#215));
#155=AXIS2_PLACEMENT_3D('',#216,#217,#218);
#156=EDGE_LOOP('',(#219,#220,#221,#222));
#157=AXIS2_PLACEMENT_3D('',#223,#224,#225);
#158=EDGE_LOOP('',(#226,#227,#228,#229));
#159=AXIS2_PLACEMENT_3D('',#230,#231,#232);
#160=EDGE_LOOP('',(#233,#234,#235,#236));
#161=AXIS2_PLACEMENT_3D('',#237,#238,#239);
#162=EDGE_LOOP('',(#240,#241,#242,#243));
#163=AXIS2_PLACEMENT_3D('',#244,#245,#246);
#164=EDGE_LOOP('',(#247,#248,#249,#250));
#165=AXIS2_PLACEMENT_3D('',#251,#252,#253);
#166=EDGE_LOOP('',(#254,#255));
#167=EDGE_LOOP('',(#256,#257));
#168=AXIS2_PLACEMENT_3D('',#258,#259,#260);
#169=EDGE_LOOP('',(#261,#262,#263,#264));
#170=AXIS2_PLACEMENT_3D('',#265,#266,#267);
#171=EDGE_LOOP('',(#268,#269));
#172=EDGE_LOOP('',(#270,#271));
#173=AXIS2_PLACEMENT_3D('',#272,#273,#274);
#174=FILL_AREA_STYLE('',(#275));
#175=EDGE_LOOP('',(#276,#277,#278,#279));
#176=AXIS2_PLACEMENT_3D('',#280,#281,#282);
#177=EDGE_LOOP('',(#283,#284,#285,#286));
#178=AXIS2_PLACEMENT_3D('',#287,#288,#289);
#179=EDGE_LOOP('',(#290,#291,#292,#293));
#180=AXIS2_PLACEMENT_3D('',#294,#295,#296);
#181=EDGE_LOOP('',(#297,#298,#299,#300));
#182=AXIS2_PLACEMENT_3D('',#301,#302,#303);
#183=EDGE_LOOP('',(#304,#305));
#184=EDGE_LOOP('',(#306,#307));
#185=AXIS2_PLACEMENT_3D('',#308,#309,#310);
#186=EDGE_LOOP('',(#311,#312));
#187=EDGE_LOOP('',(#313,#314));
#188=AXIS2_PLACEMENT_3D('',#315,#316,#317);
#189=FILL_AREA_STYLE('',(#318));
#190=EDGE_LOOP('',(#319,#320,#321,#322));
#191=AXIS2_PLACEMENT_3D('',#323,#324,#325);
#192=EDGE_LOOP('',(#326,#327,#328,#329));
#193=AXIS2_PLACEMENT_3D('',#330,#331,#332);
#194=EDGE_LOOP('',(#333,#334,#335,#336));
#195=AXIS2_PLACEMENT_3D('',#337,#338,#339);
#196=EDGE_LOOP('',(#340,#341,#342,#343));
#197=AXIS2_PLACEMENT_3D('',#344,#345,#346);
#198=EDGE_LOOP('',(#347,#348));
#199=EDGE_LOOP('',(#349,#350));
#200=AXIS2_PLACEMENT_3D('',#351,#352,#353);
#201=EDGE_LOOP('',(#354,#355));
#202=EDGE_LOOP('',(#356,#357));
#203=AXIS2_PLACEMENT_3D('',#358,#359,#360);
#204=FILL_AREA_STYLE_COLOUR('',#361);
#205=ORIENTED_EDGE('',*,*,#362,.F.);
#206=ORIENTED_EDGE('',*,*,#363,.T.);
#207=ORIENTED_EDGE('',*,*,#364,.F.);
#208=ORIENTED_EDGE('',*,*,#365,.T.);
#209=CARTESIAN_POINT('',(0.0,0.0,0.0));
#210=DIRECTION('',(-0.0,-0.0,-1.0));
#211=DIRECTION('',(-1.0,0.0,0.0));
#212=ORIENTED_EDGE('',*,*,#366,.F.);
#213=ORIENTED_EDGE('',*,*,#363,.F.);
#214=ORIENTED_EDGE('',*,*,#367,.F.);
#215=ORIENTED_EDGE('',*,*,#368,.F.);
#216=CARTESIAN_POINT('',(0.0,0.0,-21.5));
#217=DIRECTION('',(0.0,0.0,-1.0));
#218=DIRECTION('',(1.0,0.0,0.0));
#219=ORIENTED_EDGE('',*,*,#369,.F.);
#220=ORIENTED_EDGE('',*,*,#370,.T.);
#221=ORIENTED_EDGE('',*,*,#371,.F.);
#222=ORIENTED_EDGE('',*,*,#372,.T.);
#223=CARTESIAN_POINT('',(0.0,0.0,-43.0));
#224=DIRECTION('',(-0.0,-0.0,1.0));
#225=DIRECTION('',(-1.0,0.0,0.0));
#226=ORIENTED_EDGE('',*,*,#373,.F.);
#227=ORIENTED_EDGE('',*,*,#374,.F.);
#228=ORIENTED_EDGE('',*,*,#375,.F.);
#229=ORIENTED_EDGE('',*,*,#376,.F.);
#230=CARTESIAN_POINT('',(0.0,0.0,0.0));
#231=DIRECTION('',(0.0,0.0,-1.0));
#232=DIRECTION('',(1.0,0.0,0.0));
#233=ORIENTED_EDGE('',*,*,#373,.T.);
#234=ORIENTED_EDGE('',*,*,#377,.F.);
#235=ORIENTED_EDGE('',*,*,#375,.T.);
#236=ORIENTED_EDGE('',*,*,#378,.F.);
#237=CARTESIAN_POINT('',(0.0,0.0,0.0));
#238=DIRECTION('',(0.0,0.0,-1.0));
#239=DIRECTION('',(1.0,0.0,0.0));
#240=ORIENTED_EDGE('',*,*,#369,.T.);
#241=ORIENTED_EDGE('',*,*,#379,.T.);
#242=ORIENTED_EDGE('',*,*,#371,.T.);
#243=ORIENTED_EDGE('',*,*,#368,.T.);
#244=CARTESIAN_POINT('',(0.0,0.0,-43.0));
#245=DIRECTION('',(-0.0,-0.0,1.0));
#246=DIRECTION('',(-1.0,0.0,0.0));
#247=ORIENTED_EDGE('',*,*,#366,.T.);
#248=ORIENTED_EDGE('',*,*,#370,.F.);
#249=ORIENTED_EDGE('',*,*,#367,.T.);
#250=ORIENTED_EDGE('',*,*,#380,.F.);
#251=CARTESIAN_POINT('',(0.0,0.0,-21.5));
#252=DIRECTION('',(0.0,0.0,-1.0));
#253=DIRECTION('',(1.0,0.0,0.0));
#254=ORIENTED_EDGE('',*,*,#374,.T.);
#255=ORIENTED_EDGE('',*,*,#378,.T.);
#256=ORIENTED_EDGE('',*,*,#372,.F.);
#257=ORIENTED_EDGE('',*,*,#379,.F.);
#258=CARTESIAN_POINT('',(0.0,0.0,-43.0));
#259=DIRECTION('',(0.0,0.0,-1.0));
#260=DIRECTION('',(1.0,0.0,0.0));
#261=ORIENTED_EDGE('',*,*,#362,.T.);
#262=ORIENTED_EDGE('',*,*,#381,.T.);
#263=ORIENTED_EDGE('',*,*,#364,.T.);
#264=ORIENTED_EDGE('',*,*,#380,.T.);
#265=CARTESIAN_POINT('',(0.0,0.0,0.0));
#266=DIRECTION('',(-0.0,-0.0,-1.0));
#267=DIRECTION('',(-1.0,0.0,0.0));
#268=ORIENTED_EDGE('',*,*,#376,.T.);
#269=ORIENTED_EDGE('',*,*,#377,.T.);
#270=ORIENTED_EDGE('',*,*,#365,.F.);
#271=ORIENTED_EDGE('',*,*,#381,.F.);
#272=CARTESIAN_POINT('',(0.0,0.0,0.0));
#273=DIRECTION('',(0.0,0.0,1.0));
#274=DIRECTION('',(-1.0,0.0,0.0));
#275=FILL_AREA_STYLE_COLOUR('',#382);
#276=ORIENTED_EDGE('',*,*,#383,.F.);
#277=ORIENTED_EDGE('',*,*,#384,.F.);
#278=ORIENTED_EDGE('',*,*,#385,.F.);
#279=ORIENTED_EDGE('',*,*,#386,.T.);
#280=CARTESIAN_POINT('',(0.0,0.0,-43.75));
#281=DIRECTION('',(0.0,0.0,-1.0));
#282=DIRECTION('',(-1.0,0.0,0.0));
#283=ORIENTED_EDGE('',*,*,#387,.F.);
#284=ORIENTED_EDGE('',*,*,#388,.F.);
#285=ORIENTED_EDGE('',*,*,#389,.F.);
#286=ORIENTED_EDGE('',*,*,#390,.F.);
#287=CARTESIAN_POINT('',(0.0,0.0,0.0));
#288=DIRECTION('',(0.0,0.0,-1.0));
#289=DIRECTION('',(1.0,0.0,0.0));
#290=ORIENTED_EDGE('',*,*,#387,.T.);
#291=ORIENTED_EDGE('',*,*,#391,.F.);
#292=ORIENTED_EDGE('',*,*,#389,.T.);
#293=ORIENTED_EDGE('',*,*,#392,.F.);
#294=CARTESIAN_POINT('',(0.0,0.0,0.0));
#295=DIRECTION('',(0.0,0.0,-1.0));
#296=DIRECTION('',(1.0,0.0,0.0));
#297=ORIENTED_EDGE('',*,*,#383,.T.);
#298=ORIENTED_EDGE('',*,*,#393,.T.);
#299=ORIENTED_EDGE('',*,*,#385,.T.);
#300=ORIENTED_EDGE('',*,*,#394,.F.);
#301=CARTESIAN_POINT('',(0.0,0.0,-43.75));
#302=DIRECTION('',(0.0,0.0,-1.0));
#303=DIRECTION('',(-1.0,0.0,0.0));
#304=ORIENTED_EDGE('',*,*,#388,.T.);
#305=ORIENTED_EDGE('',*,*,#392,.T.);
#306=ORIENTED_EDGE('',*,*,#386,.F.);
#307=ORIENTED_EDGE('',*,*,#393,.F.);
#308=CARTESIAN_POINT('',(0.0,0.0,-76.0));
#309=DIRECTION('',(0.0,0.0,-1.0));
#310=DIRECTION('',(1.0,0.0,0.0));
#311=ORIENTED_EDGE('',*,*,#391,.T.);
#312=ORIENTED_EDGE('',*,*,#390,.T.);
#313=ORIENTED_EDGE('',*,*,#384,.T.);
#314=ORIENTED_EDGE('',*,*,#394,.T.);
#315=CARTESIAN_POINT('',(0.0,0.0,-43.75));
#316=DIRECTION('',(0.0,0.0,-1.0));
#317=DIRECTION('',(1.0,0.0,0.0));
#318=FILL_AREA_STYLE_COLOUR('',#395);
#319=ORIENTED_EDGE('',*,*,#396,.F.);
#320=ORIENTED_EDGE('',*,*,#397,.F.);
#321=ORIENTED_EDGE('',*,*,#398,.F.);
#322=ORIENTED_EDGE('',*,*,#399,.T.);
#323=CARTESIAN_POINT('',(0.0,0.0,-43.0));
#324=DIRECTION('',(0.0,0.0,-1.0));
#325=DIRECTION('',(-1.0,0.0,0.0));
#326=ORIENTED_EDGE('',*,*,#400,.F.);
#327=ORIENTED_EDGE('',*,*,#401,.F.);
#328=ORIENTED_EDGE('',*,*,#402,.F.);
#329=ORIENTED_EDGE('',*,*,#403,.F.);
#330=CARTESIAN_POINT('',(0.0,0.0,0.0));
#331=DIRECTION('',(0.0,0.0,-1.0));
#332=DIRECTION('',(1.0,0.0,0.0));
#333=ORIENTED_EDGE('',*,*,#400,.T.);
#334=ORIENTED_EDGE('',*,*,#404,.F.);
#335=ORIENTED_EDGE('',*,*,#402,.T.);
#336=ORIENTED_EDGE('',*,*,#405,.F.);
#337=CARTESIAN_POINT('',(0.0,0.0,0.0));
#338=DIRECTION('',(0.0,0.0,-1.0));
#339=DIRECTION('',(1.0,0.0,0.0));
#340=ORIENTED_EDGE('',*,*,#396,.T.);
#341=ORIENTED_EDGE('',*,*,#406,.T.);
#342=ORIENTED_EDGE('',*,*,#398,.T.);
#343=ORIENTED_EDGE('',*,*,#407,.F.);
#344=CARTESIAN_POINT('',(0.0,0.0,-43.0));
#345=DIRECTION('',(0.0,0.0,-1.0));
#346=DIRECTION('',(-1.0,0.0,0.0));
#347=ORIENTED_EDGE('',*,*,#401,.T.);
#348=ORIENTED_EDGE('',*,*,#405,.T.);
#349=ORIENTED_EDGE('',*,*,#399,.F.);
#350=ORIENTED_EDGE('',*,*,#406,.F.);
#351=CARTESIAN_POINT('',(0.0,0.0,-43.75));
#352=DIRECTION('',(0.0,0.0,-1.0));
#353=DIRECTION('',(1.0,0.0,0.0));
#354=ORIENTED_EDGE('',*,*,#404,.T.);
#355=ORIENTED_EDGE('',*,*,#403,.T.);
#356=ORIENTED_EDGE('',*,*,#397,.T.);
#357=ORIENTED_EDGE('',*,*,#407,.T.);
#358=CARTESIAN_POINT('',(0.0,0.0,-43.0));
#359=DIRECTION('',(0.0,0.0,-1.0));
#360=DIRECTION('',(1.0,0.0,0.0));
#361=COLOUR_RGB('',0.756862759590149,0.756862759590149,0.756862759590149);
#362=EDGE_CURVE('',#408,#409,#410,.T.);
#363=EDGE_CURVE('',#408,#411,#412,.T.);
#364=EDGE_CURVE('',#413,#411,#414,.T.);
#365=EDGE_CURVE('',#413,#409,#415,.T.);
#366=EDGE_CURVE('',#411,#416,#417,.T.);
#367=EDGE_CURVE('',#418,#408,#419,.T.);
#368=EDGE_CURVE('',#416,#418,#420,.T.);
#369=EDGE_CURVE('',#418,#421,#422,.T.);
#370=EDGE_CURVE('',#418,#416,#423,.T.);
#371=EDGE_CURVE('',#424,#416,#425,.T.);
#372=EDGE_CURVE('',#424,#421,#426,.T.);
#373=EDGE_CURVE('',#427,#428,#429,.T.);
#374=EDGE_CURVE('',#430,#427,#431,.T.);
#375=EDGE_CURVE('',#432,#430,#433,.T.);
#376=EDGE_CURVE('',#428,#432,#434,.T.);
#377=EDGE_CURVE('',#432,#428,#435,.T.);
#378=EDGE_CURVE('',#427,#430,#436,.T.);
#379=EDGE_CURVE('',#421,#424,#437,.T.);
#380=EDGE_CURVE('',#411,#408,#438,.T.);
#381=EDGE_CURVE('',#409,#413,#439,.T.);
#382=COLOUR_RGB('',0.0,1.0,0.0);
#383=EDGE_CURVE('',#440,#441,#442,.T.);
#384=EDGE_CURVE('',#443,#440,#444,.T.);
#385=EDGE_CURVE('',#445,#443,#446,.T.);
#386=EDGE_CURVE('',#445,#441,#447,.T.);
#387=EDGE_CURVE('',#448,#449,#450,.T.);
#388=EDGE_CURVE('',#451,#448,#452,.T.);
#389=EDGE_CURVE('',#453,#451,#454,.T.);
#390=EDGE_CURVE('',#449,#453,#455,.T.);
#391=EDGE_CURVE('',#453,#449,#456,.T.);
#392=EDGE_CURVE('',#448,#451,#457,.T.);
#393=EDGE_CURVE('',#441,#445,#458,.T.);
#394=EDGE_CURVE('',#440,#443,#459,.T.);
#395=COLOUR_RGB('',0.443137258291245,0.443137258291245,0.776470601558685);
#396=EDGE_CURVE('',#460,#461,#462,.T.);
#397=EDGE_CURVE('',#463,#460,#464,.T.);
#398=EDGE_CURVE('',#465,#463,#466,.T.);
#399=EDGE_CURVE('',#465,#461,#467,.T.);
#400=EDGE_CURVE('',#468,#469,#470,.T.);
#401=EDGE_CURVE('',#471,#468,#472,.T.);
#402=EDGE_CURVE('',#473,#471,#474,.T.);
#403=EDGE_CURVE('',#469,#473,#475,.T.);
#404=EDGE_CURVE('',#473,#469,#476,.T.);
#405=EDGE_CURVE('',#468,#471,#477,.T.);
#406=EDGE_CURVE('',#461,#465,#478,.T.);
#407=EDGE_CURVE('',#460,#463,#479,.T.);
#408=VERTEX_POINT('',#480);
#409=VERTEX_POINT('',#481);
#410=LINE('',#482,#483);
#411=VERTEX_POINT('',#484);
#412=CIRCLE('',#485,4.0);
#413=VERTEX_POINT('',#486);
#414=LINE('',#487,#488);
#415=CIRCLE('',#489,3.5);
#416=VERTEX_POINT('',#490);
#417=LINE('',#491,#492);
#418=VERTEX_POINT('',#493);
#419=LINE('',#494,#495);
#420=CIRCLE('',#496,4.0);
#421=VERTEX_POINT('',#497);
#422=LINE('',#498,#499);
#423=CIRCLE('',#500,4.0);
#424=VERTEX_POINT('',#501);
#425=LINE('',#502,#503);
#426=CIRCLE('',#504,3.75);
#427=VERTEX_POINT('',#505);
#428=VERTEX_POINT('',#506);
#429=LINE('',#507,#508);
#430=VERTEX_POINT('',#509);
#431=CIRCLE('',#510,0.65);
#432=VERTEX_POINT('',#511);
#433=LINE('',#512,#513);
#434=CIRCLE('',#514,0.65);
#435=CIRCLE('',#515,0.65);
#436=CIRCLE('',#516,0.65);
#437=CIRCLE('',#517,3.75);
#438=CIRCLE('',#518,4.0);
#439=CIRCLE('',#519,3.5);
#440=VERTEX_POINT('',#520);
#441=VERTEX_POINT('',#521);
#442=LINE('',#522,#523);
#443=VERTEX_POINT('',#524);
#444=CIRCLE('',#525,3.75);
#445=VERTEX_POINT('',#526);
#446=LINE('',#527,#528);
#447=CIRCLE('',#529,3.75);
#448=VERTEX_POINT('',#530);
#449=VERTEX_POINT('',#531);
#450=LINE('',#532,#533);
#451=VERTEX_POINT('',#534);
#452=CIRCLE('',#535,0.65);
#453=VERTEX_POINT('',#536);
#454=LINE('',#537,#538);
#455=CIRCLE('',#539,0.65);
#456=CIRCLE('',#540,0.65);
#457=CIRCLE('',#541,0.65);
#458=CIRCLE('',#542,3.75);
#459=CIRCLE('',#543,3.75);
#460=VERTEX_POINT('',#544);
#461=VERTEX_POINT('',#545);
#462=LINE('',#546,#547);
#463=VERTEX_POINT('',#548);
#464=CIRCLE('',#549,3.75);
#465=VERTEX_POINT('',#550);
#466=LINE('',#551,#552);
#467=CIRCLE('',#553,3.75);
#468=VERTEX_POINT('',#554);
#469=VERTEX_POINT('',#555);
#470=LINE('',#556,#557);
#471=VERTEX_POINT('',#558);
#472=CIRCLE('',#559,0.65);
#473=VERTEX_POINT('',#560);
#474=LINE('',#561,#562);
#475=CIRCLE('',#563,0.65);
#476=CIRCLE('',#564,0.65);
#477=CIRCLE('',#565,0.65);
#478=CIRCLE('',#566,3.75);
#479=CIRCLE('',#567,3.75);
#480=CARTESIAN_POINT('',(-4.0,-4.89858719658941E-16,-0.5));
#481=CARTESIAN_POINT('',(-3.5,4.28626379701574E-16,0.0));
#482=CARTESIAN_POINT('',(-3.5,4.28626379701574E-16,0.0));
#483=VECTOR('',#568,1.0);
#484=CARTESIAN_POINT('',(4.0,4.89858719658941E-16,-0.5));
#485=AXIS2_PLACEMENT_3D('',#569,#570,#571);
#486=CARTESIAN_POINT('',(3.5,-4.28626379701574E-16,0.0));
#487=CARTESIAN_POINT('',(3.5,-4.28626379701573E-16,0.0));
#488=VECTOR('',#572,1.0);
#489=AXIS2_PLACEMENT_3D('',#573,#574,#575);
#490=CARTESIAN_POINT('',(4.0,-4.89858719658941E-16,-42.75));
#491=CARTESIAN_POINT('',(4.0,4.89858719658941E-16,-21.5));
#492=VECTOR('',#576,1.0);
#493=CARTESIAN_POINT('',(-4.0,-4.89858719658941E-16,-42.75));
#494=CARTESIAN_POINT('',(-4.0,-4.89858719658941E-16,-21.5));
#495=VECTOR('',#577,1.0);
#496=AXIS2_PLACEMENT_3D('',#578,#579,#580);
#497=CARTESIAN_POINT('',(-3.75,-4.59242549680257E-16,-43.0));
#498=CARTESIAN_POINT('',(-3.75,-4.59242549680257E-16,-43.0));
#499=VECTOR('',#581,1.0);
#500=AXIS2_PLACEMENT_3D('',#582,#583,#584);
#501=CARTESIAN_POINT('',(3.75,4.59242549680257E-16,-43.0));
#502=CARTESIAN_POINT('',(3.75,4.59242549680257E-16,-43.0));
#503=VECTOR('',#585,1.0);
#504=AXIS2_PLACEMENT_3D('',#586,#587,#588);
#505=CARTESIAN_POINT('',(0.65,7.96020419445779E-17,-43.0));
#506=CARTESIAN_POINT('',(0.65,0.0,0.0));
#507=CARTESIAN_POINT('',(0.65,7.96020419445779E-17,0.0));
#508=VECTOR('',#589,1.0);
#509=CARTESIAN_POINT('',(-0.65,-7.96020419445779E-17,-43.0));
#510=AXIS2_PLACEMENT_3D('',#590,#591,#592);
#511=CARTESIAN_POINT('',(-0.65,-7.96020419445779E-17,0.0));
#512=CARTESIAN_POINT('',(-0.65,-7.96020419445779E-17,0.0));
#513=VECTOR('',#593,1.0);
#514=AXIS2_PLACEMENT_3D('',#594,#595,#596);
#515=AXIS2_PLACEMENT_3D('',#597,#598,#599);
#516=AXIS2_PLACEMENT_3D('',#600,#601,#602);
#517=AXIS2_PLACEMENT_3D('',#603,#604,#605);
#518=AXIS2_PLACEMENT_3D('',#606,#607,#608);
#519=AXIS2_PLACEMENT_3D('',#609,#610,#611);
#520=CARTESIAN_POINT('',(-3.75,-4.59242549680257E-16,-43.75));
#521=CARTESIAN_POINT('',(-3.75,-4.59242549680257E-16,-76.0));
#522=CARTESIAN_POINT('',(-3.75,-4.59242549680257E-16,-43.75));
#523=VECTOR('',#612,1.0);
#524=CARTESIAN_POINT('',(3.75,4.59242549680257E-16,-43.75));
#525=AXIS2_PLACEMENT_3D('',#613,#614,#615);
#526=CARTESIAN_POINT('',(3.75,4.59242549680257E-16,-76.0));
#527=CARTESIAN_POINT('',(3.75,4.59242549680257E-16,-43.75));
#528=VECTOR('',#616,1.0);
#529=AXIS2_PLACEMENT_3D('',#617,#618,#619);
#530=CARTESIAN_POINT('',(0.65,7.96020419445779E-17,-76.0));
#531=CARTESIAN_POINT('',(0.65,7.96020419445779E-17,-43.75));
#532=CARTESIAN_POINT('',(0.65,7.96020419445779E-17,-59.875));
#533=VECTOR('',#620,1.0);
#534=CARTESIAN_POINT('',(-0.65,-7.96020419445779E-17,-76.0));
#535=AXIS2_PLACEMENT_3D('',#621,#622,#623);
#536=CARTESIAN_POINT('',(-0.65,7.96020419445779E-17,-43.75));
#537=CARTESIAN_POINT('',(-0.65,-7.96020419445779E-17,-59.875));
#538=VECTOR('',#624,1.0);
#539=AXIS2_PLACEMENT_3D('',#625,#626,#627);
#540=AXIS2_PLACEMENT_3D('',#628,#629,#630);
#541=AXIS2_PLACEMENT_3D('',#631,#632,#633);
#542=AXIS2_PLACEMENT_3D('',#634,#635,#636);
#543=AXIS2_PLACEMENT_3D('',#637,#638,#639);
#544=CARTESIAN_POINT('',(-3.75,-4.59242549680257E-16,-43.0));
#545=CARTESIAN_POINT('',(-3.75,-4.59242549680257E-16,-43.75));
#546=CARTESIAN_POINT('',(-3.75,-4.59242549680257E-16,-43.0));
#547=VECTOR('',#640,1.0);
#548=CARTESIAN_POINT('',(3.75,4.59242549680257E-16,-43.0));
#549=AXIS2_PLACEMENT_3D('',#641,#642,#643);
#550=CARTESIAN_POINT('',(3.75,4.59242549680257E-16,-43.75));
#551=CARTESIAN_POINT('',(3.75,4.59242549680257E-16,-43.0));
#552=VECTOR('',#644,1.0);
#553=AXIS2_PLACEMENT_3D('',#645,#646,#647);
#554=CARTESIAN_POINT('',(0.65,7.96020419445779E-17,-43.75));
#555=CARTESIAN_POINT('',(0.65,7.96020419445779E-17,-43.0));
#556=CARTESIAN_POINT('',(0.65,7.96020419445779E-17,-43.375));
#557=VECTOR('',#648,1.0);
#558=CARTESIAN_POINT('',(-0.65,-7.96020419445779E-17,-43.75));
#559=AXIS2_PLACEMENT_3D('',#649,#650,#651);
#560=CARTESIAN_POINT('',(-0.65,7.96020419445779E-17,-43.0));
#561=CARTESIAN_POINT('',(-0.65,-7.96020419445779E-17,-43.375));
#562=VECTOR('',#652,1.0);
#563=AXIS2_PLACEMENT_3D('',#653,#654,#655);
#564=AXIS2_PLACEMENT_3D('',#656,#657,#658);
#565=AXIS2_PLACEMENT_3D('',#659,#660,#661);
#566=AXIS2_PLACEMENT_3D('',#662,#663,#664);
#567=AXIS2_PLACEMENT_3D('',#665,#666,#667);
#568=DIRECTION('',(0.707106781186547,-8.65956056235493E-17,0.707106781186548));
#569=CARTESIAN_POINT('',(0.0,0.0,-0.5));
#570=DIRECTION('',(0.0,0.0,1.0));
#571=DIRECTION('',(-1.0,0.0,0.0));
#572=DIRECTION('',(0.707106781186547,-8.65956056235493E-17,-0.707106781186548));
#573=CARTESIAN_POINT('',(0.0,0.0,0.0));
#574=DIRECTION('',(0.0,0.0,-1.0));
#575=DIRECTION('',(-1.0,0.0,0.0));
#576=DIRECTION('',(0.0,0.0,-1.0));
#577=DIRECTION('',(-0.0,-0.0,1.0));
#578=CARTESIAN_POINT('',(0.0,0.0,-42.75));
#579=DIRECTION('',(0.0,0.0,-1.0));
#580=DIRECTION('',(-1.0,0.0,0.0));
#581=DIRECTION('',(0.707106781186547,8.65956056235493E-17,-0.707106781186548));
#582=CARTESIAN_POINT('',(0.0,0.0,-42.75));
#583=DIRECTION('',(0.0,0.0,-1.0));
#584=DIRECTION('',(-1.0,0.0,0.0));
#585=DIRECTION('',(0.707106781186547,8.65956056235493E-17,0.707106781186548));
#586=CARTESIAN_POINT('',(0.0,0.0,-43.0));
#587=DIRECTION('',(0.0,0.0,1.0));
#588=DIRECTION('',(-1.0,0.0,0.0));
#589=DIRECTION('',(-0.0,-0.0,1.0));
#590=CARTESIAN_POINT('',(0.0,0.0,-43.0));
#591=DIRECTION('',(-0.0,0.0,1.0));
#592=DIRECTION('',(1.0,0.0,0.0));
#593=DIRECTION('',(-0.0,-0.0,-1.0));
#594=CARTESIAN_POINT('',(0.0,0.0,0.0));
#595=DIRECTION('',(0.0,0.0,-1.0));
#596=DIRECTION('',(1.0,0.0,0.0));
#597=CARTESIAN_POINT('',(0.0,0.0,0.0));
#598=DIRECTION('',(0.0,0.0,-1.0));
#599=DIRECTION('',(1.0,0.0,0.0));
#600=CARTESIAN_POINT('',(0.0,0.0,-43.0));
#601=DIRECTION('',(-0.0,0.0,1.0));
#602=DIRECTION('',(1.0,0.0,0.0));
#603=CARTESIAN_POINT('',(0.0,0.0,-43.0));
#604=DIRECTION('',(0.0,0.0,1.0));
#605=DIRECTION('',(-1.0,0.0,0.0));
#606=CARTESIAN_POINT('',(0.0,0.0,-0.5));
#607=DIRECTION('',(0.0,0.0,1.0));
#608=DIRECTION('',(-1.0,0.0,0.0));
#609=CARTESIAN_POINT('',(0.0,0.0,0.0));
#610=DIRECTION('',(0.0,0.0,-1.0));
#611=DIRECTION('',(-1.0,0.0,0.0));
#612=DIRECTION('',(0.0,0.0,-1.0));
#613=CARTESIAN_POINT('',(0.0,0.0,-43.75));
#614=DIRECTION('',(0.0,0.0,1.0));
#615=DIRECTION('',(-1.0,0.0,0.0));
#616=DIRECTION('',(-0.0,-0.0,1.0));
#617=CARTESIAN_POINT('',(0.0,0.0,-76.0));
#618=DIRECTION('',(0.0,0.0,1.0));
#619=DIRECTION('',(-1.0,0.0,0.0));
#620=DIRECTION('',(-0.0,-0.0,1.0));
#621=CARTESIAN_POINT('',(0.0,0.0,-76.0));
#622=DIRECTION('',(-0.0,0.0,1.0));
#623=DIRECTION('',(1.0,0.0,0.0));
#624=DIRECTION('',(-0.0,-0.0,-1.0));
#625=CARTESIAN_POINT('',(0.0,0.0,-43.75));
#626=DIRECTION('',(0.0,0.0,-1.0));
#627=DIRECTION('',(1.0,0.0,0.0));
#628=CARTESIAN_POINT('',(0.0,0.0,-43.75));
#629=DIRECTION('',(0.0,0.0,-1.0));
#630=DIRECTION('',(1.0,0.0,0.0));
#631=CARTESIAN_POINT('',(0.0,0.0,-76.0));
#632=DIRECTION('',(-0.0,0.0,1.0));
#633=DIRECTION('',(1.0,0.0,0.0));
#634=CARTESIAN_POINT('',(0.0,0.0,-76.0));
#635=DIRECTION('',(0.0,0.0,1.0));
#636=DIRECTION('',(-1.0,0.0,0.0));
#637=CARTESIAN_POINT('',(0.0,0.0,-43.75));
#638=DIRECTION('',(0.0,0.0,1.0));
#639=DIRECTION('',(-1.0,0.0,0.0));
#640=DIRECTION('',(0.0,0.0,-1.0));
#641=CARTESIAN_POINT('',(0.0,0.0,-43.0));
#642=DIRECTION('',(0.0,0.0,1.0));
#643=DIRECTION('',(-1.0,0.0,0.0));
#644=DIRECTION('',(-0.0,-0.0,1.0));
#645=CARTESIAN_POINT('',(0.0,0.0,-43.75));
#646=DIRECTION('',(0.0,0.0,1.0));
#647=DIRECTION('',(-1.0,0.0,0.0));
#648=DIRECTION('',(-0.0,-0.0,1.0));
#649=CARTESIAN_POINT('',(0.0,0.0,-43.75));
#650=DIRECTION('',(-0.0,0.0,1.0));
#651=DIRECTION('',(1.0,0.0,0.0));
#652=DIRECTION('',(-0.0,-0.0,-1.0));
#653=CARTESIAN_POINT('',(0.0,0.0,-43.0));
#654=DIRECTION('',(0.0,0.0,-1.0));
#655=DIRECTION('',(1.0,0.0,0.0));
#656=CARTESIAN_POINT('',(0.0,0.0,-43.0));
#657=DIRECTION('',(0.0,0.0,-1.0));
#658=DIRECTION('',(1.0,0.0,0.0));
#659=CARTESIAN_POINT('',(0.0,0.0,-43.75));
#660=DIRECTION('',(-0.0,0.0,1.0));
#661=DIRECTION('',(1.0,0.0,0.0));
#662=CARTESIAN_POINT('',(0.0,0.0,-43.75));
#663=DIRECTION('',(0.0,0.0,1.0));
#664=DIRECTION('',(-1.0,0.0,0.0));
#665=CARTESIAN_POINT('',(0.0,0.0,-43.0));
#666=DIRECTION('',(0.0,0.0,1.0));
#667=DIRECTION('',(-1.0,0.0,0.0));
ENDSEC;
END-ISO-10303-21;
