ISO-10303-21;
HEADER;
FILE_DESCRIPTION(('STEP AP214'),'1');
FILE_NAME('NBK2020C50_3.5ISO_AC.stp','2022-06-21T12:44:35',(' '),(' '),'Spatial InterOp 3D',' ',' ');
FILE_SCHEMA(('AUTOMOTIVE_DESIGN { 1 0 10303 214 1 1 1 1 }'));
ENDSEC;
DATA;
#1=MECHANICAL_DESIGN_GEOMETRIC_PRESENTATION_REPRESENTATION(' ',(#12,#13,#14),#8);
#2=PRODUCT_DEFINITION_CONTEXT('',#15,'design');
#3=APPLICATION_PROTOCOL_DEFINITION('INTERNATIONAL STANDARD','automotive_design',1994,#15);
#4=PRODUCT_CATEGORY_RELATIONSHIP('NONE','NONE',#16,#17);
#5=SHAPE_DEFINITION_REPRESENTATION(#18,#19);
#6=SHAPE_DEFINITION_REPRESENTATION(#18,#20);
#7=SHAPE_DEFINITION_REPRESENTATION(#18,#21);
#8= (GEOMETRIC_REPRESENTATION_CONTEXT(3)GLOBAL_UNCERTAINTY_ASSIGNED_CONTEXT((#24))GLOBAL_UNIT_ASSIGNED_CONTEXT((#26,#27,#28))REPRESENTATION_CONTEXT('NONE','WORKSPACE'));
#12=STYLED_ITEM('',(#30),#31);
#13=STYLED_ITEM('',(#32),#33);
#14=STYLED_ITEM('',(#34),#35);
#15=APPLICATION_CONTEXT(' ');
#16=PRODUCT_CATEGORY('part','NONE');
#17=PRODUCT_RELATED_PRODUCT_CATEGORY('detail',' ',(#36));
#18=PRODUCT_DEFINITION_SHAPE('NONE','NONE',#37);
#19=ADVANCED_BREP_SHAPE_REPRESENTATION('1',(#31,#38),#8);
#20=ADVANCED_BREP_SHAPE_REPRESENTATION('2',(#33,#39),#8);
#21=ADVANCED_BREP_SHAPE_REPRESENTATION('3',(#35,#40),#8);
#24=UNCERTAINTY_MEASURE_WITH_UNIT(LENGTH_MEASURE(1.0E-06),#26,'','');
#26= (CONVERSION_BASED_UNIT('MILLIMETRE',#43)LENGTH_UNIT()NAMED_UNIT(#46));
#27= (NAMED_UNIT(#48)PLANE_ANGLE_UNIT()SI_UNIT($,.RADIAN.));
#28= (NAMED_UNIT(#48)SOLID_ANGLE_UNIT()SI_UNIT($,.STERADIAN.));
#30=PRESENTATION_STYLE_ASSIGNMENT((#54));
#31=MANIFOLD_SOLID_BREP('1',#55);
#32=PRESENTATION_STYLE_ASSIGNMENT((#56));
#33=MANIFOLD_SOLID_BREP('2',#57);
#34=PRESENTATION_STYLE_ASSIGNMENT((#58));
#35=MANIFOLD_SOLID_BREP('3',#59);
#36=PRODUCT('1','','PART--DESC',(#60));
#37=PRODUCT_DEFINITION('','NONE',#61,#2);
#38=AXIS2_PLACEMENT_3D('',#62,#63,#64);
#39=AXIS2_PLACEMENT_3D('',#65,#66,#67);
#40=AXIS2_PLACEMENT_3D('',#68,#69,#70);
#43=LENGTH_MEASURE_WITH_UNIT(LENGTH_MEASURE(1.0),#71);
#46=DIMENSIONAL_EXPONENTS(1.0,0.0,0.0,0.0,0.0,0.0,0.0);
#48=DIMENSIONAL_EXPONENTS(0.0,0.0,0.0,0.0,0.0,0.0,0.0);
#54=SURFACE_STYLE_USAGE(.BOTH.,#72);
#55=CLOSED_SHELL('',(#73,#74,#75,#76,#77,#78,#79,#80));
#56=SURFACE_STYLE_USAGE(.BOTH.,#81);
#57=CLOSED_SHELL('',(#82,#83,#84,#85,#86,#87));
#58=SURFACE_STYLE_USAGE(.BOTH.,#88);
#59=CLOSED_SHELL('',(#89,#90,#91,#92,#93,#94));
#60=PRODUCT_CONTEXT('',#15,'mechanical');
#61=PRODUCT_DEFINITION_FORMATION_WITH_SPECIFIED_SOURCE(' ','NONE',#36,.NOT_KNOWN.);
#62=CARTESIAN_POINT('',(0.0,0.0,0.0));
#63=DIRECTION('',(0.0,0.0,1.0));
#64=DIRECTION('',(1.0,0.0,0.0));
#65=CARTESIAN_POINT('',(0.0,0.0,0.0));
#66=DIRECTION('',(0.0,0.0,1.0));
#67=DIRECTION('',(1.0,0.0,0.0));
#68=CARTESIAN_POINT('',(0.0,0.0,0.0));
#69=DIRECTION('',(0.0,0.0,1.0));
#70=DIRECTION('',(1.0,0.0,0.0));
#71= (NAMED_UNIT(#46)LENGTH_UNIT()SI_UNIT(.MILLI.,.METRE.));
#72=SURFACE_SIDE_STYLE('',(#96));
#73=ADVANCED_FACE('',(#97),#98,.T.);
#74=ADVANCED_FACE('',(#99),#100,.T.);
#75=ADVANCED_FACE('',(#101),#102,.F.);
#76=ADVANCED_FACE('',(#103),#104,.F.);
#77=ADVANCED_FACE('',(#105),#106,.T.);
#78=ADVANCED_FACE('',(#107),#108,.T.);
#79=ADVANCED_FACE('',(#109,#110),#111,.T.);
#80=ADVANCED_FACE('',(#112,#113),#114,.T.);
#81=SURFACE_SIDE_STYLE('',(#115));
#82=ADVANCED_FACE('',(#116),#117,.F.);
#83=ADVANCED_FACE('',(#118),#119,.T.);
#84=ADVANCED_FACE('',(#120),#121,.T.);
#85=ADVANCED_FACE('',(#122),#123,.F.);
#86=ADVANCED_FACE('',(#124,#125),#126,.T.);
#87=ADVANCED_FACE('',(#127,#128),#129,.F.);
#88=SURFACE_SIDE_STYLE('',(#130));
#89=ADVANCED_FACE('',(#131),#132,.F.);
#90=ADVANCED_FACE('',(#133),#134,.T.);
#91=ADVANCED_FACE('',(#135),#136,.T.);
#92=ADVANCED_FACE('',(#137),#138,.F.);
#93=ADVANCED_FACE('',(#139,#140),#141,.T.);
#94=ADVANCED_FACE('',(#142,#143),#144,.F.);
#96=SURFACE_STYLE_FILL_AREA(#145);
#97=FACE_OUTER_BOUND('',#146,.T.);
#98=CYLINDRICAL_SURFACE('',#147,10.0);
#99=FACE_OUTER_BOUND('',#148,.T.);
#100=CONICAL_SURFACE('',#149,9.0,0.785398163397448);
#101=FACE_OUTER_BOUND('',#150,.T.);
#102=CYLINDRICAL_SURFACE('',#151,1.5);
#103=FACE_OUTER_BOUND('',#152,.T.);
#104=CYLINDRICAL_SURFACE('',#153,1.5);
#105=FACE_OUTER_BOUND('',#154,.T.);
#106=CONICAL_SURFACE('',#155,9.0,0.785398163397448);
#107=FACE_OUTER_BOUND('',#156,.T.);
#108=CYLINDRICAL_SURFACE('',#157,10.0);
#109=FACE_BOUND('',#158,.T.);
#110=FACE_OUTER_BOUND('',#159,.T.);
#111=PLANE('',#160);
#112=FACE_BOUND('',#161,.T.);
#113=FACE_OUTER_BOUND('',#162,.T.);
#114=PLANE('',#163);
#115=SURFACE_STYLE_FILL_AREA(#164);
#116=FACE_OUTER_BOUND('',#165,.T.);
#117=CYLINDRICAL_SURFACE('',#166,1.5);
#118=FACE_OUTER_BOUND('',#167,.T.);
#119=CYLINDRICAL_SURFACE('',#168,10.0);
#120=FACE_OUTER_BOUND('',#169,.T.);
#121=CYLINDRICAL_SURFACE('',#170,10.0);
#122=FACE_OUTER_BOUND('',#171,.T.);
#123=CYLINDRICAL_SURFACE('',#172,1.5);
#124=FACE_BOUND('',#173,.T.);
#125=FACE_OUTER_BOUND('',#174,.T.);
#126=PLANE('',#175);
#127=FACE_BOUND('',#176,.T.);
#128=FACE_OUTER_BOUND('',#177,.T.);
#129=PLANE('',#178);
#130=SURFACE_STYLE_FILL_AREA(#179);
#131=FACE_OUTER_BOUND('',#180,.T.);
#132=CYLINDRICAL_SURFACE('',#181,1.5);
#133=FACE_OUTER_BOUND('',#182,.T.);
#134=CYLINDRICAL_SURFACE('',#183,10.0);
#135=FACE_OUTER_BOUND('',#184,.T.);
#136=CYLINDRICAL_SURFACE('',#185,10.0);
#137=FACE_OUTER_BOUND('',#186,.T.);
#138=CYLINDRICAL_SURFACE('',#187,1.5);
#139=FACE_BOUND('',#188,.T.);
#140=FACE_OUTER_BOUND('',#189,.T.);
#141=PLANE('',#190);
#142=FACE_BOUND('',#191,.T.);
#143=FACE_OUTER_BOUND('',#192,.T.);
#144=PLANE('',#193);
#145=FILL_AREA_STYLE('',(#194));
#146=EDGE_LOOP('',(#195,#196,#197,#198));
#147=AXIS2_PLACEMENT_3D('',#199,#200,#201);
#148=EDGE_LOOP('',(#202,#203,#204,#205));
#149=AXIS2_PLACEMENT_3D('',#206,#207,#208);
#150=EDGE_LOOP('',(#209,#210,#211,#212));
#151=AXIS2_PLACEMENT_3D('',#213,#214,#215);
#152=EDGE_LOOP('',(#216,#217,#218,#219));
#153=AXIS2_PLACEMENT_3D('',#220,#221,#222);
#154=EDGE_LOOP('',(#223,#224,#225,#226));
#155=AXIS2_PLACEMENT_3D('',#227,#228,#229);
#156=EDGE_LOOP('',(#230,#231,#232,#233));
#157=AXIS2_PLACEMENT_3D('',#234,#235,#236);
#158=EDGE_LOOP('',(#237,#238));
#159=EDGE_LOOP('',(#239,#240));
#160=AXIS2_PLACEMENT_3D('',#241,#242,#243);
#161=EDGE_LOOP('',(#244,#245));
#162=EDGE_LOOP('',(#246,#247));
#163=AXIS2_PLACEMENT_3D('',#248,#249,#250);
#164=FILL_AREA_STYLE('',(#251));
#165=EDGE_LOOP('',(#252,#253,#254,#255));
#166=AXIS2_PLACEMENT_3D('',#256,#257,#258);
#167=EDGE_LOOP('',(#259,#260,#261,#262));
#168=AXIS2_PLACEMENT_3D('',#263,#264,#265);
#169=EDGE_LOOP('',(#266,#267,#268,#269));
#170=AXIS2_PLACEMENT_3D('',#270,#271,#272);
#171=EDGE_LOOP('',(#273,#274,#275,#276));
#172=AXIS2_PLACEMENT_3D('',#277,#278,#279);
#173=EDGE_LOOP('',(#280,#281));
#174=EDGE_LOOP('',(#282,#283));
#175=AXIS2_PLACEMENT_3D('',#284,#285,#286);
#176=EDGE_LOOP('',(#287,#288));
#177=EDGE_LOOP('',(#289,#290));
#178=AXIS2_PLACEMENT_3D('',#291,#292,#293);
#179=FILL_AREA_STYLE('',(#294));
#180=EDGE_LOOP('',(#295,#296,#297,#298));
#181=AXIS2_PLACEMENT_3D('',#299,#300,#301);
#182=EDGE_LOOP('',(#302,#303,#304,#305));
#183=AXIS2_PLACEMENT_3D('',#306,#307,#308);
#184=EDGE_LOOP('',(#309,#310,#311,#312));
#185=AXIS2_PLACEMENT_3D('',#313,#314,#315);
#186=EDGE_LOOP('',(#316,#317,#318,#319));
#187=AXIS2_PLACEMENT_3D('',#320,#321,#322);
#188=EDGE_LOOP('',(#323,#324));
#189=EDGE_LOOP('',(#325,#326));
#190=AXIS2_PLACEMENT_3D('',#327,#328,#329);
#191=EDGE_LOOP('',(#330,#331));
#192=EDGE_LOOP('',(#332,#333));
#193=AXIS2_PLACEMENT_3D('',#334,#335,#336);
#194=FILL_AREA_STYLE_COLOUR('',#337);
#195=ORIENTED_EDGE('',*,*,#338,.F.);
#196=ORIENTED_EDGE('',*,*,#339,.F.);
#197=ORIENTED_EDGE('',*,*,#340,.F.);
#198=ORIENTED_EDGE('',*,*,#341,.F.);
#199=CARTESIAN_POINT('',(0.0,0.0,-48.75));
#200=DIRECTION('',(0.0,0.0,-1.0));
#201=DIRECTION('',(1.0,0.0,0.0));
#202=ORIENTED_EDGE('',*,*,#342,.F.);
#203=ORIENTED_EDGE('',*,*,#339,.T.);
#204=ORIENTED_EDGE('',*,*,#343,.F.);
#205=ORIENTED_EDGE('',*,*,#344,.T.);
#206=CARTESIAN_POINT('',(0.0,0.0,0.0));
#207=DIRECTION('',(-0.0,-0.0,-1.0));
#208=DIRECTION('',(-1.0,0.0,0.0));
#209=ORIENTED_EDGE('',*,*,#345,.F.);
#210=ORIENTED_EDGE('',*,*,#346,.F.);
#211=ORIENTED_EDGE('',*,*,#347,.F.);
#212=ORIENTED_EDGE('',*,*,#348,.F.);
#213=CARTESIAN_POINT('',(0.0,0.0,0.0));
#214=DIRECTION('',(0.0,0.0,-1.0));
#215=DIRECTION('',(1.0,0.0,0.0));
#216=ORIENTED_EDGE('',*,*,#345,.T.);
#217=ORIENTED_EDGE('',*,*,#349,.F.);
#218=ORIENTED_EDGE('',*,*,#347,.T.);
#219=ORIENTED_EDGE('',*,*,#350,.F.);
#220=CARTESIAN_POINT('',(0.0,0.0,0.0));
#221=DIRECTION('',(0.0,0.0,-1.0));
#222=DIRECTION('',(1.0,0.0,0.0));
#223=ORIENTED_EDGE('',*,*,#342,.T.);
#224=ORIENTED_EDGE('',*,*,#351,.T.);
#225=ORIENTED_EDGE('',*,*,#343,.T.);
#226=ORIENTED_EDGE('',*,*,#352,.T.);
#227=CARTESIAN_POINT('',(0.0,0.0,0.0));
#228=DIRECTION('',(-0.0,-0.0,-1.0));
#229=DIRECTION('',(-1.0,0.0,0.0));
#230=ORIENTED_EDGE('',*,*,#338,.T.);
#231=ORIENTED_EDGE('',*,*,#353,.F.);
#232=ORIENTED_EDGE('',*,*,#340,.T.);
#233=ORIENTED_EDGE('',*,*,#352,.F.);
#234=CARTESIAN_POINT('',(0.0,0.0,-48.75));
#235=DIRECTION('',(0.0,0.0,-1.0));
#236=DIRECTION('',(1.0,0.0,0.0));
#237=ORIENTED_EDGE('',*,*,#348,.T.);
#238=ORIENTED_EDGE('',*,*,#349,.T.);
#239=ORIENTED_EDGE('',*,*,#344,.F.);
#240=ORIENTED_EDGE('',*,*,#351,.F.);
#241=CARTESIAN_POINT('',(0.0,0.0,0.0));
#242=DIRECTION('',(0.0,0.0,1.0));
#243=DIRECTION('',(-1.0,0.0,0.0));
#244=ORIENTED_EDGE('',*,*,#346,.T.);
#245=ORIENTED_EDGE('',*,*,#350,.T.);
#246=ORIENTED_EDGE('',*,*,#341,.T.);
#247=ORIENTED_EDGE('',*,*,#353,.T.);
#248=CARTESIAN_POINT('',(0.0,0.0,-97.5));
#249=DIRECTION('',(0.0,0.0,-1.0));
#250=DIRECTION('',(1.0,0.0,0.0));
#251=FILL_AREA_STYLE_COLOUR('',#354);
#252=ORIENTED_EDGE('',*,*,#355,.F.);
#253=ORIENTED_EDGE('',*,*,#356,.T.);
#254=ORIENTED_EDGE('',*,*,#357,.F.);
#255=ORIENTED_EDGE('',*,*,#358,.T.);
#256=CARTESIAN_POINT('',(0.0,0.0,-97.5));
#257=DIRECTION('',(0.0,0.0,-1.0));
#258=DIRECTION('',(1.0,0.0,0.0));
#259=ORIENTED_EDGE('',*,*,#359,.F.);
#260=ORIENTED_EDGE('',*,*,#360,.T.);
#261=ORIENTED_EDGE('',*,*,#361,.F.);
#262=ORIENTED_EDGE('',*,*,#362,.T.);
#263=CARTESIAN_POINT('',(0.0,0.0,-97.5));
#264=DIRECTION('',(0.0,0.0,-1.0));
#265=DIRECTION('',(1.0,0.0,0.0));
#266=ORIENTED_EDGE('',*,*,#359,.T.);
#267=ORIENTED_EDGE('',*,*,#363,.T.);
#268=ORIENTED_EDGE('',*,*,#361,.T.);
#269=ORIENTED_EDGE('',*,*,#364,.T.);
#270=CARTESIAN_POINT('',(0.0,0.0,-97.5));
#271=DIRECTION('',(0.0,0.0,-1.0));
#272=DIRECTION('',(1.0,0.0,0.0));
#273=ORIENTED_EDGE('',*,*,#355,.T.);
#274=ORIENTED_EDGE('',*,*,#365,.T.);
#275=ORIENTED_EDGE('',*,*,#357,.T.);
#276=ORIENTED_EDGE('',*,*,#366,.T.);
#277=CARTESIAN_POINT('',(0.0,0.0,-97.5));
#278=DIRECTION('',(0.0,0.0,-1.0));
#279=DIRECTION('',(1.0,0.0,0.0));
#280=ORIENTED_EDGE('',*,*,#358,.F.);
#281=ORIENTED_EDGE('',*,*,#365,.F.);
#282=ORIENTED_EDGE('',*,*,#363,.F.);
#283=ORIENTED_EDGE('',*,*,#362,.F.);
#284=CARTESIAN_POINT('',(0.0,0.0,-99.25));
#285=DIRECTION('',(0.0,0.0,-1.0));
#286=DIRECTION('',(1.0,0.0,0.0));
#287=ORIENTED_EDGE('',*,*,#366,.F.);
#288=ORIENTED_EDGE('',*,*,#356,.F.);
#289=ORIENTED_EDGE('',*,*,#360,.F.);
#290=ORIENTED_EDGE('',*,*,#364,.F.);
#291=CARTESIAN_POINT('',(0.0,0.0,-97.5));
#292=DIRECTION('',(0.0,0.0,-1.0));
#293=DIRECTION('',(1.0,0.0,0.0));
#294=FILL_AREA_STYLE_COLOUR('',#367);
#295=ORIENTED_EDGE('',*,*,#368,.F.);
#296=ORIENTED_EDGE('',*,*,#369,.F.);
#297=ORIENTED_EDGE('',*,*,#370,.F.);
#298=ORIENTED_EDGE('',*,*,#371,.T.);
#299=CARTESIAN_POINT('',(0.0,0.0,-99.25));
#300=DIRECTION('',(0.0,0.0,-1.0));
#301=DIRECTION('',(1.0,0.0,0.0));
#302=ORIENTED_EDGE('',*,*,#372,.F.);
#303=ORIENTED_EDGE('',*,*,#373,.F.);
#304=ORIENTED_EDGE('',*,*,#374,.F.);
#305=ORIENTED_EDGE('',*,*,#375,.T.);
#306=CARTESIAN_POINT('',(0.0,0.0,-99.25));
#307=DIRECTION('',(0.0,0.0,-1.0));
#308=DIRECTION('',(1.0,0.0,0.0));
#309=ORIENTED_EDGE('',*,*,#372,.T.);
#310=ORIENTED_EDGE('',*,*,#376,.T.);
#311=ORIENTED_EDGE('',*,*,#374,.T.);
#312=ORIENTED_EDGE('',*,*,#377,.F.);
#313=CARTESIAN_POINT('',(0.0,0.0,-99.25));
#314=DIRECTION('',(0.0,0.0,-1.0));
#315=DIRECTION('',(1.0,0.0,0.0));
#316=ORIENTED_EDGE('',*,*,#368,.T.);
#317=ORIENTED_EDGE('',*,*,#378,.T.);
#318=ORIENTED_EDGE('',*,*,#370,.T.);
#319=ORIENTED_EDGE('',*,*,#379,.F.);
#320=CARTESIAN_POINT('',(0.0,0.0,-99.25));
#321=DIRECTION('',(0.0,0.0,-1.0));
#322=DIRECTION('',(1.0,0.0,0.0));
#323=ORIENTED_EDGE('',*,*,#371,.F.);
#324=ORIENTED_EDGE('',*,*,#378,.F.);
#325=ORIENTED_EDGE('',*,*,#376,.F.);
#326=ORIENTED_EDGE('',*,*,#375,.F.);
#327=CARTESIAN_POINT('',(0.0,0.0,-150.0));
#328=DIRECTION('',(0.0,0.0,-1.0));
#329=DIRECTION('',(1.0,0.0,0.0));
#330=ORIENTED_EDGE('',*,*,#369,.T.);
#331=ORIENTED_EDGE('',*,*,#379,.T.);
#332=ORIENTED_EDGE('',*,*,#377,.T.);
#333=ORIENTED_EDGE('',*,*,#373,.T.);
#334=CARTESIAN_POINT('',(0.0,0.0,-99.25));
#335=DIRECTION('',(0.0,0.0,-1.0));
#336=DIRECTION('',(1.0,0.0,0.0));
#337=COLOUR_RGB('',0.756862759590149,0.756862759590149,0.756862759590149);
#338=EDGE_CURVE('',#380,#381,#382,.T.);
#339=EDGE_CURVE('',#383,#380,#384,.T.);
#340=EDGE_CURVE('',#385,#383,#386,.T.);
#341=EDGE_CURVE('',#381,#385,#387,.T.);
#342=EDGE_CURVE('',#383,#388,#389,.T.);
#343=EDGE_CURVE('',#390,#380,#391,.T.);
#344=EDGE_CURVE('',#390,#388,#392,.T.);
#345=EDGE_CURVE('',#393,#394,#395,.T.);
#346=EDGE_CURVE('',#396,#393,#397,.T.);
#347=EDGE_CURVE('',#398,#396,#399,.T.);
#348=EDGE_CURVE('',#394,#398,#400,.T.);
#349=EDGE_CURVE('',#398,#394,#401,.T.);
#350=EDGE_CURVE('',#393,#396,#402,.T.);
#351=EDGE_CURVE('',#388,#390,#403,.T.);
#352=EDGE_CURVE('',#380,#383,#404,.T.);
#353=EDGE_CURVE('',#385,#381,#405,.T.);
#354=COLOUR_RGB('',0.443137258291245,0.443137258291245,0.776470601558685);
#355=EDGE_CURVE('',#406,#407,#408,.T.);
#356=EDGE_CURVE('',#406,#409,#410,.T.);
#357=EDGE_CURVE('',#411,#409,#412,.T.);
#358=EDGE_CURVE('',#411,#407,#413,.T.);
#359=EDGE_CURVE('',#414,#415,#416,.T.);
#360=EDGE_CURVE('',#414,#417,#418,.T.);
#361=EDGE_CURVE('',#419,#417,#420,.T.);
#362=EDGE_CURVE('',#419,#415,#421,.T.);
#363=EDGE_CURVE('',#415,#419,#422,.T.);
#364=EDGE_CURVE('',#417,#414,#423,.T.);
#365=EDGE_CURVE('',#407,#411,#424,.T.);
#366=EDGE_CURVE('',#409,#406,#425,.T.);
#367=COLOUR_RGB('',0.0,1.0,0.0);
#368=EDGE_CURVE('',#426,#427,#428,.T.);
#369=EDGE_CURVE('',#429,#426,#430,.T.);
#370=EDGE_CURVE('',#431,#429,#432,.T.);
#371=EDGE_CURVE('',#431,#427,#433,.T.);
#372=EDGE_CURVE('',#434,#435,#436,.T.);
#373=EDGE_CURVE('',#437,#434,#438,.T.);
#374=EDGE_CURVE('',#439,#437,#440,.T.);
#375=EDGE_CURVE('',#439,#435,#441,.T.);
#376=EDGE_CURVE('',#435,#439,#442,.T.);
#377=EDGE_CURVE('',#434,#437,#443,.T.);
#378=EDGE_CURVE('',#427,#431,#444,.T.);
#379=EDGE_CURVE('',#426,#429,#445,.T.);
#380=VERTEX_POINT('',#446);
#381=VERTEX_POINT('',#447);
#382=LINE('',#448,#449);
#383=VERTEX_POINT('',#450);
#384=CIRCLE('',#451,10.0);
#385=VERTEX_POINT('',#452);
#386=LINE('',#453,#454);
#387=CIRCLE('',#455,10.0);
#388=VERTEX_POINT('',#456);
#389=LINE('',#457,#458);
#390=VERTEX_POINT('',#459);
#391=LINE('',#460,#461);
#392=CIRCLE('',#462,9.0);
#393=VERTEX_POINT('',#463);
#394=VERTEX_POINT('',#464);
#395=LINE('',#465,#466);
#396=VERTEX_POINT('',#467);
#397=CIRCLE('',#468,1.5);
#398=VERTEX_POINT('',#469);
#399=LINE('',#470,#471);
#400=CIRCLE('',#472,1.5);
#401=CIRCLE('',#473,1.5);
#402=CIRCLE('',#474,1.5);
#403=CIRCLE('',#475,9.0);
#404=CIRCLE('',#476,10.0);
#405=CIRCLE('',#477,10.0);
#406=VERTEX_POINT('',#478);
#407=VERTEX_POINT('',#479);
#408=LINE('',#480,#481);
#409=VERTEX_POINT('',#482);
#410=CIRCLE('',#483,1.5);
#411=VERTEX_POINT('',#484);
#412=LINE('',#485,#486);
#413=CIRCLE('',#487,1.5);
#414=VERTEX_POINT('',#488);
#415=VERTEX_POINT('',#489);
#416=LINE('',#490,#491);
#417=VERTEX_POINT('',#492);
#418=CIRCLE('',#493,10.0);
#419=VERTEX_POINT('',#494);
#420=LINE('',#495,#496);
#421=CIRCLE('',#497,10.0);
#422=CIRCLE('',#498,10.0);
#423=CIRCLE('',#499,10.0);
#424=CIRCLE('',#500,1.5);
#425=CIRCLE('',#501,1.5);
#426=VERTEX_POINT('',#502);
#427=VERTEX_POINT('',#503);
#428=LINE('',#504,#505);
#429=VERTEX_POINT('',#506);
#430=CIRCLE('',#507,1.5);
#431=VERTEX_POINT('',#508);
#432=LINE('',#509,#510);
#433=CIRCLE('',#511,1.5);
#434=VERTEX_POINT('',#512);
#435=VERTEX_POINT('',#513);
#436=LINE('',#514,#515);
#437=VERTEX_POINT('',#516);
#438=CIRCLE('',#517,10.0);
#439=VERTEX_POINT('',#518);
#440=LINE('',#519,#520);
#441=CIRCLE('',#521,10.0);
#442=CIRCLE('',#522,10.0);
#443=CIRCLE('',#523,10.0);
#444=CIRCLE('',#524,1.5);
#445=CIRCLE('',#525,1.5);
#446=CARTESIAN_POINT('',(10.0,1.22464679914735E-15,-1.0));
#447=CARTESIAN_POINT('',(10.0,0.0,-97.5));
#448=CARTESIAN_POINT('',(10.0,1.22464679914735E-15,-48.75));
#449=VECTOR('',#526,1.0);
#450=CARTESIAN_POINT('',(-10.0,1.22464679914735E-15,-1.0));
#451=AXIS2_PLACEMENT_3D('',#527,#528,#529);
#452=CARTESIAN_POINT('',(-10.0,-1.22464679914735E-15,-97.5));
#453=CARTESIAN_POINT('',(-10.0,-1.22464679914735E-15,-48.75));
#454=VECTOR('',#530,1.0);
#455=AXIS2_PLACEMENT_3D('',#531,#532,#533);
#456=CARTESIAN_POINT('',(-9.0,1.10218211923262E-15,0.0));
#457=CARTESIAN_POINT('',(-9.0,1.10218211923262E-15,0.0));
#458=VECTOR('',#534,1.0);
#459=CARTESIAN_POINT('',(9.0,-1.10218211923262E-15,0.0));
#460=CARTESIAN_POINT('',(9.0,-1.10218211923262E-15,0.0));
#461=VECTOR('',#535,1.0);
#462=AXIS2_PLACEMENT_3D('',#536,#537,#538);
#463=CARTESIAN_POINT('',(1.5,1.83697019872103E-16,-97.5));
#464=CARTESIAN_POINT('',(1.5,0.0,0.0));
#465=CARTESIAN_POINT('',(1.5,1.83697019872103E-16,0.0));
#466=VECTOR('',#539,1.0);
#467=CARTESIAN_POINT('',(-1.5,-1.83697019872103E-16,-97.5));
#468=AXIS2_PLACEMENT_3D('',#540,#541,#542);
#469=CARTESIAN_POINT('',(-1.5,-1.83697019872103E-16,0.0));
#470=CARTESIAN_POINT('',(-1.5,-1.83697019872103E-16,0.0));
#471=VECTOR('',#543,1.0);
#472=AXIS2_PLACEMENT_3D('',#544,#545,#546);
#473=AXIS2_PLACEMENT_3D('',#547,#548,#549);
#474=AXIS2_PLACEMENT_3D('',#550,#551,#552);
#475=AXIS2_PLACEMENT_3D('',#553,#554,#555);
#476=AXIS2_PLACEMENT_3D('',#556,#557,#558);
#477=AXIS2_PLACEMENT_3D('',#559,#560,#561);
#478=CARTESIAN_POINT('',(1.5,1.83697019872103E-16,-97.5));
#479=CARTESIAN_POINT('',(1.5,1.83697019872103E-16,-99.25));
#480=CARTESIAN_POINT('',(1.5,1.83697019872103E-16,-97.5));
#481=VECTOR('',#562,1.0);
#482=CARTESIAN_POINT('',(-1.5,-1.83697019872103E-16,-97.5));
#483=AXIS2_PLACEMENT_3D('',#563,#564,#565);
#484=CARTESIAN_POINT('',(-1.5,-1.83697019872103E-16,-99.25));
#485=CARTESIAN_POINT('',(-1.5,-1.83697019872103E-16,-97.5));
#486=VECTOR('',#566,1.0);
#487=AXIS2_PLACEMENT_3D('',#567,#568,#569);
#488=CARTESIAN_POINT('',(10.0,0.0,-97.5));
#489=CARTESIAN_POINT('',(10.0,0.0,-99.25));
#490=CARTESIAN_POINT('',(10.0,1.22464679914735E-15,-97.5));
#491=VECTOR('',#570,1.0);
#492=CARTESIAN_POINT('',(-10.0,-1.22464679914735E-15,-97.5));
#493=AXIS2_PLACEMENT_3D('',#571,#572,#573);
#494=CARTESIAN_POINT('',(-10.0,-1.22464679914735E-15,-99.25));
#495=CARTESIAN_POINT('',(-10.0,-1.22464679914735E-15,-97.5));
#496=VECTOR('',#574,1.0);
#497=AXIS2_PLACEMENT_3D('',#575,#576,#577);
#498=AXIS2_PLACEMENT_3D('',#578,#579,#580);
#499=AXIS2_PLACEMENT_3D('',#581,#582,#583);
#500=AXIS2_PLACEMENT_3D('',#584,#585,#586);
#501=AXIS2_PLACEMENT_3D('',#587,#588,#589);
#502=CARTESIAN_POINT('',(1.5,1.83697019872103E-16,-99.25));
#503=CARTESIAN_POINT('',(1.5,1.83697019872103E-16,-150.0));
#504=CARTESIAN_POINT('',(1.5,1.83697019872103E-16,-99.25));
#505=VECTOR('',#590,1.0);
#506=CARTESIAN_POINT('',(-1.5,-1.83697019872103E-16,-99.25));
#507=AXIS2_PLACEMENT_3D('',#591,#592,#593);
#508=CARTESIAN_POINT('',(-1.5,-1.83697019872103E-16,-150.0));
#509=CARTESIAN_POINT('',(-1.5,-1.83697019872103E-16,-99.25));
#510=VECTOR('',#594,1.0);
#511=AXIS2_PLACEMENT_3D('',#595,#596,#597);
#512=CARTESIAN_POINT('',(10.0,0.0,-99.25));
#513=CARTESIAN_POINT('',(10.0,0.0,-150.0));
#514=CARTESIAN_POINT('',(10.0,1.22464679914735E-15,-99.25));
#515=VECTOR('',#598,1.0);
#516=CARTESIAN_POINT('',(-10.0,-1.22464679914735E-15,-99.25));
#517=AXIS2_PLACEMENT_3D('',#599,#600,#601);
#518=CARTESIAN_POINT('',(-10.0,-1.22464679914735E-15,-150.0));
#519=CARTESIAN_POINT('',(-10.0,-1.22464679914735E-15,-99.25));
#520=VECTOR('',#602,1.0);
#521=AXIS2_PLACEMENT_3D('',#603,#604,#605);
#522=AXIS2_PLACEMENT_3D('',#606,#607,#608);
#523=AXIS2_PLACEMENT_3D('',#609,#610,#611);
#524=AXIS2_PLACEMENT_3D('',#612,#613,#614);
#525=AXIS2_PLACEMENT_3D('',#615,#616,#617);
#526=DIRECTION('',(0.0,0.0,-1.0));
#527=CARTESIAN_POINT('',(0.0,0.0,-1.0));
#528=DIRECTION('',(0.0,0.0,1.0));
#529=DIRECTION('',(-1.0,0.0,0.0));
#530=DIRECTION('',(-0.0,-0.0,1.0));
#531=CARTESIAN_POINT('',(0.0,0.0,-97.5));
#532=DIRECTION('',(0.0,0.0,-1.0));
#533=DIRECTION('',(1.0,0.0,0.0));
#534=DIRECTION('',(0.707106781186547,-8.65956056235493E-17,0.707106781186548));
#535=DIRECTION('',(0.707106781186547,-8.65956056235493E-17,-0.707106781186548));
#536=CARTESIAN_POINT('',(0.0,0.0,0.0));
#537=DIRECTION('',(0.0,0.0,-1.0));
#538=DIRECTION('',(-1.0,0.0,0.0));
#539=DIRECTION('',(-0.0,-0.0,1.0));
#540=CARTESIAN_POINT('',(0.0,0.0,-97.5));
#541=DIRECTION('',(-0.0,0.0,1.0));
#542=DIRECTION('',(1.0,0.0,0.0));
#543=DIRECTION('',(-0.0,-0.0,-1.0));
#544=CARTESIAN_POINT('',(0.0,0.0,0.0));
#545=DIRECTION('',(0.0,0.0,-1.0));
#546=DIRECTION('',(1.0,0.0,0.0));
#547=CARTESIAN_POINT('',(0.0,0.0,0.0));
#548=DIRECTION('',(0.0,0.0,-1.0));
#549=DIRECTION('',(1.0,0.0,0.0));
#550=CARTESIAN_POINT('',(0.0,0.0,-97.5));
#551=DIRECTION('',(-0.0,0.0,1.0));
#552=DIRECTION('',(1.0,0.0,0.0));
#553=CARTESIAN_POINT('',(0.0,0.0,0.0));
#554=DIRECTION('',(0.0,0.0,-1.0));
#555=DIRECTION('',(-1.0,0.0,0.0));
#556=CARTESIAN_POINT('',(0.0,0.0,-1.0));
#557=DIRECTION('',(0.0,0.0,1.0));
#558=DIRECTION('',(-1.0,0.0,0.0));
#559=CARTESIAN_POINT('',(0.0,0.0,-97.5));
#560=DIRECTION('',(0.0,0.0,-1.0));
#561=DIRECTION('',(1.0,0.0,0.0));
#562=DIRECTION('',(-0.0,-0.0,-1.0));
#563=CARTESIAN_POINT('',(0.0,0.0,-97.5));
#564=DIRECTION('',(-0.0,0.0,1.0));
#565=DIRECTION('',(1.0,0.0,0.0));
#566=DIRECTION('',(-0.0,-0.0,1.0));
#567=CARTESIAN_POINT('',(0.0,0.0,-99.25));
#568=DIRECTION('',(0.0,0.0,-1.0));
#569=DIRECTION('',(1.0,0.0,0.0));
#570=DIRECTION('',(0.0,0.0,-1.0));
#571=CARTESIAN_POINT('',(0.0,0.0,-97.5));
#572=DIRECTION('',(0.0,0.0,-1.0));
#573=DIRECTION('',(1.0,0.0,0.0));
#574=DIRECTION('',(-0.0,-0.0,1.0));
#575=CARTESIAN_POINT('',(0.0,0.0,-99.25));
#576=DIRECTION('',(-0.0,0.0,1.0));
#577=DIRECTION('',(1.0,0.0,0.0));
#578=CARTESIAN_POINT('',(0.0,0.0,-99.25));
#579=DIRECTION('',(-0.0,0.0,1.0));
#580=DIRECTION('',(1.0,0.0,0.0));
#581=CARTESIAN_POINT('',(0.0,0.0,-97.5));
#582=DIRECTION('',(0.0,0.0,-1.0));
#583=DIRECTION('',(1.0,0.0,0.0));
#584=CARTESIAN_POINT('',(0.0,0.0,-99.25));
#585=DIRECTION('',(0.0,0.0,-1.0));
#586=DIRECTION('',(1.0,0.0,0.0));
#587=CARTESIAN_POINT('',(0.0,0.0,-97.5));
#588=DIRECTION('',(-0.0,0.0,1.0));
#589=DIRECTION('',(1.0,0.0,0.0));
#590=DIRECTION('',(-0.0,-0.0,-1.0));
#591=CARTESIAN_POINT('',(0.0,0.0,-99.25));
#592=DIRECTION('',(0.0,0.0,-1.0));
#593=DIRECTION('',(1.0,0.0,0.0));
#594=DIRECTION('',(-0.0,-0.0,1.0));
#595=CARTESIAN_POINT('',(0.0,0.0,-150.0));
#596=DIRECTION('',(0.0,0.0,-1.0));
#597=DIRECTION('',(1.0,0.0,0.0));
#598=DIRECTION('',(0.0,0.0,-1.0));
#599=CARTESIAN_POINT('',(0.0,0.0,-99.25));
#600=DIRECTION('',(-0.0,0.0,1.0));
#601=DIRECTION('',(1.0,0.0,0.0));
#602=DIRECTION('',(-0.0,-0.0,1.0));
#603=CARTESIAN_POINT('',(0.0,0.0,-150.0));
#604=DIRECTION('',(-0.0,0.0,1.0));
#605=DIRECTION('',(1.0,0.0,0.0));
#606=CARTESIAN_POINT('',(0.0,0.0,-150.0));
#607=DIRECTION('',(-0.0,0.0,1.0));
#608=DIRECTION('',(1.0,0.0,0.0));
#609=CARTESIAN_POINT('',(0.0,0.0,-99.25));
#610=DIRECTION('',(-0.0,0.0,1.0));
#611=DIRECTION('',(1.0,0.0,0.0));
#612=CARTESIAN_POINT('',(0.0,0.0,-150.0));
#613=DIRECTION('',(0.0,0.0,-1.0));
#614=DIRECTION('',(1.0,0.0,0.0));
#615=CARTESIAN_POINT('',(0.0,0.0,-99.25));
#616=DIRECTION('',(0.0,0.0,-1.0));
#617=DIRECTION('',(1.0,0.0,0.0));
ENDSEC;
END-ISO-10303-21;
