ISO-10303-21;
HEADER;
FILE_DESCRIPTION(('STEP AP214'),'1');
FILE_NAME('NPT1614D32_FC.stp','2023-11-23T13:28:20',(' '),(' '),'Spatial InterOp 3D',' ',' ');
FILE_SCHEMA(('AUTOMOTIVE_DESIGN { 1 0 10303 214 1 1 1 1 }'));
ENDSEC;
DATA;
#1=MECHANICAL_DESIGN_GEOMETRIC_PRESENTATION_REPRESENTATION(' ',(#11,#12),#7);
#2=PRODUCT_DEFINITION_CONTEXT('',#13,'design');
#3=APPLICATION_PROTOCOL_DEFINITION('INTERNATIONAL STANDARD','automotive_design',1994,#13);
#4=PRODUCT_CATEGORY_RELATIONSHIP('NONE','NONE',#14,#15);
#5=SHAPE_DEFINITION_REPRESENTATION(#16,#17);
#6=SHAPE_DEFINITION_REPRESENTATION(#16,#18);
#7= (GEOMETRIC_REPRESENTATION_CONTEXT(3)GLOBAL_UNCERTAINTY_ASSIGNED_CONTEXT((#21))GLOBAL_UNIT_ASSIGNED_CONTEXT((#23,#24,#25))REPRESENTATION_CONTEXT('NONE','WORKSPACE'));
#11=STYLED_ITEM('',(#27),#28);
#12=STYLED_ITEM('',(#29),#30);
#13=APPLICATION_CONTEXT(' ');
#14=PRODUCT_CATEGORY('part','NONE');
#15=PRODUCT_RELATED_PRODUCT_CATEGORY('detail',' ',(#31));
#16=PRODUCT_DEFINITION_SHAPE('NONE','NONE',#32);
#17=ADVANCED_BREP_SHAPE_REPRESENTATION('1',(#28,#33),#7);
#18=ADVANCED_BREP_SHAPE_REPRESENTATION('2',(#30,#34),#7);
#21=UNCERTAINTY_MEASURE_WITH_UNIT(LENGTH_MEASURE(1.0E-06),#23,'','');
#23= (CONVERSION_BASED_UNIT('MILLIMETRE',#37)LENGTH_UNIT()NAMED_UNIT(#40));
#24= (NAMED_UNIT(#42)PLANE_ANGLE_UNIT()SI_UNIT($,.RADIAN.));
#25= (NAMED_UNIT(#42)SOLID_ANGLE_UNIT()SI_UNIT($,.STERADIAN.));
#27=PRESENTATION_STYLE_ASSIGNMENT((#48));
#28=MANIFOLD_SOLID_BREP('1',#49);
#29=PRESENTATION_STYLE_ASSIGNMENT((#50));
#30=MANIFOLD_SOLID_BREP('2',#51);
#31=PRODUCT('1','','PART--DESC',(#52));
#32=PRODUCT_DEFINITION('','NONE',#53,#2);
#33=AXIS2_PLACEMENT_3D('',#54,#55,#56);
#34=AXIS2_PLACEMENT_3D('',#57,#58,#59);
#37=LENGTH_MEASURE_WITH_UNIT(LENGTH_MEASURE(1.0),#60);
#40=DIMENSIONAL_EXPONENTS(1.0,0.0,0.0,0.0,0.0,0.0,0.0);
#42=DIMENSIONAL_EXPONENTS(0.0,0.0,0.0,0.0,0.0,0.0,0.0);
#48=SURFACE_STYLE_USAGE(.BOTH.,#61);
#49=CLOSED_SHELL('',(#62,#63,#64,#65,#66,#67));
#50=SURFACE_STYLE_USAGE(.BOTH.,#68);
#51=CLOSED_SHELL('',(#69,#70,#71,#72,#73,#74));
#52=PRODUCT_CONTEXT('',#13,'mechanical');
#53=PRODUCT_DEFINITION_FORMATION_WITH_SPECIFIED_SOURCE(' ','NONE',#31,.NOT_KNOWN.);
#54=CARTESIAN_POINT('',(0.0,0.0,0.0));
#55=DIRECTION('',(0.0,0.0,1.0));
#56=DIRECTION('',(1.0,0.0,0.0));
#57=CARTESIAN_POINT('',(0.0,0.0,0.0));
#58=DIRECTION('',(0.0,0.0,1.0));
#59=DIRECTION('',(1.0,0.0,0.0));
#60= (NAMED_UNIT(#40)LENGTH_UNIT()SI_UNIT(.MILLI.,.METRE.));
#61=SURFACE_SIDE_STYLE('',(#76));
#62=ADVANCED_FACE('',(#77),#78,.T.);
#63=ADVANCED_FACE('',(#79),#80,.T.);
#64=ADVANCED_FACE('',(#81),#82,.T.);
#65=ADVANCED_FACE('',(#83),#84,.T.);
#66=ADVANCED_FACE('',(#85),#86,.T.);
#67=ADVANCED_FACE('',(#87),#88,.T.);
#68=SURFACE_SIDE_STYLE('',(#89));
#69=ADVANCED_FACE('',(#90),#91,.T.);
#70=ADVANCED_FACE('',(#92),#93,.T.);
#71=ADVANCED_FACE('',(#94),#95,.T.);
#72=ADVANCED_FACE('',(#96),#97,.T.);
#73=ADVANCED_FACE('',(#98),#99,.T.);
#74=ADVANCED_FACE('',(#100),#101,.F.);
#76=SURFACE_STYLE_FILL_AREA(#102);
#77=FACE_OUTER_BOUND('',#103,.T.);
#78=CYLINDRICAL_SURFACE('',#104,8.0);
#79=FACE_OUTER_BOUND('',#105,.T.);
#80=CONICAL_SURFACE('',#106,7.2,0.785398163397448);
#81=FACE_OUTER_BOUND('',#107,.T.);
#82=CONICAL_SURFACE('',#108,7.2,0.785398163397448);
#83=FACE_OUTER_BOUND('',#109,.T.);
#84=CYLINDRICAL_SURFACE('',#110,8.0);
#85=FACE_OUTER_BOUND('',#111,.T.);
#86=PLANE('',#112);
#87=FACE_OUTER_BOUND('',#113,.T.);
#88=PLANE('',#114);
#89=SURFACE_STYLE_FILL_AREA(#115);
#90=FACE_OUTER_BOUND('',#116,.T.);
#91=CONICAL_SURFACE('',#117,8.0,0.0311250325094705);
#92=FACE_OUTER_BOUND('',#118,.T.);
#93=CONICAL_SURFACE('',#119,6.03479721108392,0.800960679652176);
#94=FACE_OUTER_BOUND('',#120,.T.);
#95=CONICAL_SURFACE('',#121,6.03479721108392,0.800960679652176);
#96=FACE_OUTER_BOUND('',#122,.T.);
#97=CONICAL_SURFACE('',#123,8.0,0.0311250325094705);
#98=FACE_OUTER_BOUND('',#124,.T.);
#99=PLANE('',#125);
#100=FACE_OUTER_BOUND('',#126,.T.);
#101=PLANE('',#127);
#102=FILL_AREA_STYLE('',(#128));
#103=EDGE_LOOP('',(#129,#130,#131,#132));
#104=AXIS2_PLACEMENT_3D('',#133,#134,#135);
#105=EDGE_LOOP('',(#136,#137,#138,#139));
#106=AXIS2_PLACEMENT_3D('',#140,#141,#142);
#107=EDGE_LOOP('',(#143,#144,#145,#146));
#108=AXIS2_PLACEMENT_3D('',#147,#148,#149);
#109=EDGE_LOOP('',(#150,#151,#152,#153));
#110=AXIS2_PLACEMENT_3D('',#154,#155,#156);
#111=EDGE_LOOP('',(#157,#158));
#112=AXIS2_PLACEMENT_3D('',#159,#160,#161);
#113=EDGE_LOOP('',(#162,#163));
#114=AXIS2_PLACEMENT_3D('',#164,#165,#166);
#115=FILL_AREA_STYLE('',(#167));
#116=EDGE_LOOP('',(#168,#169,#170,#171));
#117=AXIS2_PLACEMENT_3D('',#172,#173,#174);
#118=EDGE_LOOP('',(#175,#176,#177,#178));
#119=AXIS2_PLACEMENT_3D('',#179,#180,#181);
#120=EDGE_LOOP('',(#182,#183,#184,#185));
#121=AXIS2_PLACEMENT_3D('',#186,#187,#188);
#122=EDGE_LOOP('',(#189,#190,#191,#192));
#123=AXIS2_PLACEMENT_3D('',#193,#194,#195);
#124=EDGE_LOOP('',(#196,#197));
#125=AXIS2_PLACEMENT_3D('',#198,#199,#200);
#126=EDGE_LOOP('',(#201,#202));
#127=AXIS2_PLACEMENT_3D('',#203,#204,#205);
#128=FILL_AREA_STYLE_COLOUR('',#206);
#129=ORIENTED_EDGE('',*,*,#207,.F.);
#130=ORIENTED_EDGE('',*,*,#208,.F.);
#131=ORIENTED_EDGE('',*,*,#209,.F.);
#132=ORIENTED_EDGE('',*,*,#210,.F.);
#133=CARTESIAN_POINT('',(0.0,0.0,-28.5));
#134=DIRECTION('',(0.0,0.0,-1.0));
#135=DIRECTION('',(1.0,0.0,0.0));
#136=ORIENTED_EDGE('',*,*,#211,.F.);
#137=ORIENTED_EDGE('',*,*,#208,.T.);
#138=ORIENTED_EDGE('',*,*,#212,.F.);
#139=ORIENTED_EDGE('',*,*,#213,.T.);
#140=CARTESIAN_POINT('',(0.0,0.0,0.0));
#141=DIRECTION('',(-0.0,-0.0,-1.0));
#142=DIRECTION('',(-1.0,0.0,0.0));
#143=ORIENTED_EDGE('',*,*,#211,.T.);
#144=ORIENTED_EDGE('',*,*,#214,.T.);
#145=ORIENTED_EDGE('',*,*,#212,.T.);
#146=ORIENTED_EDGE('',*,*,#215,.T.);
#147=CARTESIAN_POINT('',(0.0,0.0,0.0));
#148=DIRECTION('',(-0.0,-0.0,-1.0));
#149=DIRECTION('',(-1.0,0.0,0.0));
#150=ORIENTED_EDGE('',*,*,#207,.T.);
#151=ORIENTED_EDGE('',*,*,#216,.F.);
#152=ORIENTED_EDGE('',*,*,#209,.T.);
#153=ORIENTED_EDGE('',*,*,#215,.F.);
#154=CARTESIAN_POINT('',(0.0,0.0,-28.5));
#155=DIRECTION('',(0.0,0.0,-1.0));
#156=DIRECTION('',(1.0,0.0,0.0));
#157=ORIENTED_EDGE('',*,*,#213,.F.);
#158=ORIENTED_EDGE('',*,*,#214,.F.);
#159=CARTESIAN_POINT('',(0.0,0.0,0.0));
#160=DIRECTION('',(0.0,0.0,1.0));
#161=DIRECTION('',(-1.0,0.0,0.0));
#162=ORIENTED_EDGE('',*,*,#210,.T.);
#163=ORIENTED_EDGE('',*,*,#216,.T.);
#164=CARTESIAN_POINT('',(0.0,0.0,-57.0));
#165=DIRECTION('',(0.0,0.0,-1.0));
#166=DIRECTION('',(1.0,0.0,0.0));
#167=FILL_AREA_STYLE_COLOUR('',#217);
#168=ORIENTED_EDGE('',*,*,#218,.F.);
#169=ORIENTED_EDGE('',*,*,#219,.T.);
#170=ORIENTED_EDGE('',*,*,#220,.F.);
#171=ORIENTED_EDGE('',*,*,#221,.F.);
#172=CARTESIAN_POINT('',(0.0,0.0,-57.0));
#173=DIRECTION('',(-0.0,-0.0,1.0));
#174=DIRECTION('',(1.0,0.0,0.0));
#175=ORIENTED_EDGE('',*,*,#222,.F.);
#176=ORIENTED_EDGE('',*,*,#223,.T.);
#177=ORIENTED_EDGE('',*,*,#224,.F.);
#178=ORIENTED_EDGE('',*,*,#221,.T.);
#179=CARTESIAN_POINT('',(0.0,0.0,-88.000484344721));
#180=DIRECTION('',(-0.0,0.0,1.0));
#181=DIRECTION('',(-1.0,1.22464679914735E-16,-0.0));
#182=ORIENTED_EDGE('',*,*,#222,.T.);
#183=ORIENTED_EDGE('',*,*,#225,.T.);
#184=ORIENTED_EDGE('',*,*,#224,.T.);
#185=ORIENTED_EDGE('',*,*,#226,.T.);
#186=CARTESIAN_POINT('',(0.0,0.0,-88.000484344721));
#187=DIRECTION('',(-0.0,0.0,1.0));
#188=DIRECTION('',(-1.0,1.22464679914735E-16,-0.0));
#189=ORIENTED_EDGE('',*,*,#218,.T.);
#190=ORIENTED_EDGE('',*,*,#225,.F.);
#191=ORIENTED_EDGE('',*,*,#220,.T.);
#192=ORIENTED_EDGE('',*,*,#227,.T.);
#193=CARTESIAN_POINT('',(0.0,0.0,-57.0));
#194=DIRECTION('',(-0.0,-0.0,1.0));
#195=DIRECTION('',(1.0,0.0,0.0));
#196=ORIENTED_EDGE('',*,*,#226,.F.);
#197=ORIENTED_EDGE('',*,*,#223,.F.);
#198=CARTESIAN_POINT('',(0.0,0.0,-89.0));
#199=DIRECTION('',(0.0,0.0,-1.0));
#200=DIRECTION('',(1.0,0.0,0.0));
#201=ORIENTED_EDGE('',*,*,#219,.F.);
#202=ORIENTED_EDGE('',*,*,#227,.F.);
#203=CARTESIAN_POINT('',(0.0,0.0,-57.0));
#204=DIRECTION('',(0.0,0.0,-1.0));
#205=DIRECTION('',(1.0,0.0,0.0));
#206=COLOUR_RGB('',0.756862759590149,0.756862759590149,0.756862759590149);
#207=EDGE_CURVE('',#228,#229,#230,.T.);
#208=EDGE_CURVE('',#231,#228,#232,.T.);
#209=EDGE_CURVE('',#233,#231,#234,.T.);
#210=EDGE_CURVE('',#229,#233,#235,.T.);
#211=EDGE_CURVE('',#231,#236,#237,.T.);
#212=EDGE_CURVE('',#238,#228,#239,.T.);
#213=EDGE_CURVE('',#238,#236,#240,.T.);
#214=EDGE_CURVE('',#236,#238,#241,.T.);
#215=EDGE_CURVE('',#228,#231,#242,.T.);
#216=EDGE_CURVE('',#233,#229,#243,.T.);
#217=COLOUR_RGB('',0.0,1.0,0.0);
#218=EDGE_CURVE('',#244,#245,#246,.T.);
#219=EDGE_CURVE('',#244,#247,#248,.T.);
#220=EDGE_CURVE('',#249,#247,#250,.T.);
#221=EDGE_CURVE('',#245,#249,#251,.T.);
#222=EDGE_CURVE('',#252,#249,#253,.T.);
#223=EDGE_CURVE('',#252,#254,#255,.T.);
#224=EDGE_CURVE('',#245,#254,#256,.T.);
#225=EDGE_CURVE('',#249,#245,#257,.T.);
#226=EDGE_CURVE('',#254,#252,#258,.T.);
#227=EDGE_CURVE('',#247,#244,#259,.T.);
#228=VERTEX_POINT('',#260);
#229=VERTEX_POINT('',#261);
#230=LINE('',#262,#263);
#231=VERTEX_POINT('',#264);
#232=CIRCLE('',#265,8.0);
#233=VERTEX_POINT('',#266);
#234=LINE('',#267,#268);
#235=CIRCLE('',#269,8.0);
#236=VERTEX_POINT('',#270);
#237=LINE('',#271,#272);
#238=VERTEX_POINT('',#273);
#239=LINE('',#274,#275);
#240=CIRCLE('',#276,7.2);
#241=CIRCLE('',#277,7.2);
#242=CIRCLE('',#278,8.0);
#243=CIRCLE('',#279,8.0);
#244=VERTEX_POINT('',#280);
#245=VERTEX_POINT('',#281);
#246=LINE('',#282,#283);
#247=VERTEX_POINT('',#284);
#248=CIRCLE('',#285,8.0);
#249=VERTEX_POINT('',#286);
#250=LINE('',#287,#288);
#251=CIRCLE('',#289,7.06591721834939);
#252=VERTEX_POINT('',#290);
#253=LINE('',#291,#292);
#254=VERTEX_POINT('',#293);
#255=CIRCLE('',#294,5.00367720381846);
#256=LINE('',#295,#296);
#257=CIRCLE('',#297,7.06591721834939);
#258=CIRCLE('',#298,5.00367720381846);
#259=CIRCLE('',#299,8.0);
#260=CARTESIAN_POINT('',(8.0,9.79717439317882E-16,-0.800000000000001));
#261=CARTESIAN_POINT('',(8.0,0.0,-57.0));
#262=CARTESIAN_POINT('',(8.0,9.79717439317882E-16,-28.5));
#263=VECTOR('',#300,1.0);
#264=CARTESIAN_POINT('',(-8.0,9.79717439317882E-16,-0.800000000000001));
#265=AXIS2_PLACEMENT_3D('',#301,#302,#303);
#266=CARTESIAN_POINT('',(-8.0,-9.79717439317882E-16,-57.0));
#267=CARTESIAN_POINT('',(-8.0,-9.79717439317882E-16,-28.5));
#268=VECTOR('',#304,1.0);
#269=AXIS2_PLACEMENT_3D('',#305,#306,#307);
#270=CARTESIAN_POINT('',(-7.2,8.81745695386094E-16,0.0));
#271=CARTESIAN_POINT('',(-7.2,8.81745695386094E-16,0.0));
#272=VECTOR('',#308,1.0);
#273=CARTESIAN_POINT('',(7.2,-8.81745695386094E-16,0.0));
#274=CARTESIAN_POINT('',(7.2,-8.81745695386094E-16,0.0));
#275=VECTOR('',#309,1.0);
#276=AXIS2_PLACEMENT_3D('',#310,#311,#312);
#277=AXIS2_PLACEMENT_3D('',#313,#314,#315);
#278=AXIS2_PLACEMENT_3D('',#316,#317,#318);
#279=AXIS2_PLACEMENT_3D('',#319,#320,#321);
#280=CARTESIAN_POINT('',(8.0,0.0,-57.0));
#281=CARTESIAN_POINT('',(7.06591721834939,-1.73065058089835E-15,-87.000968689442));
#282=CARTESIAN_POINT('',(8.0,9.79717439317882E-16,-57.0));
#283=VECTOR('',#322,1.0);
#284=CARTESIAN_POINT('',(-8.0,-9.79717439317882E-16,-57.0));
#285=AXIS2_PLACEMENT_3D('',#323,#324,#325);
#286=CARTESIAN_POINT('',(-7.06591721834939,1.73065058089835E-15,-87.000968689442));
#287=CARTESIAN_POINT('',(-8.0,-9.79717439317882E-16,-57.0));
#288=VECTOR('',#326,1.0);
#289=AXIS2_PLACEMENT_3D('',#327,#328,#329);
#290=CARTESIAN_POINT('',(-5.00367720381846,1.22554745432457E-15,-89.0));
#291=CARTESIAN_POINT('',(-6.03479721108392,1.47809901761146E-15,-88.000484344721));
#292=VECTOR('',#330,1.0);
#293=CARTESIAN_POINT('',(5.00367720381846,0.0,-89.0));
#294=AXIS2_PLACEMENT_3D('',#331,#332,#333);
#295=CARTESIAN_POINT('',(6.03479721108392,-1.47809901761146E-15,-88.000484344721));
#296=VECTOR('',#334,1.0);
#297=AXIS2_PLACEMENT_3D('',#335,#336,#337);
#298=AXIS2_PLACEMENT_3D('',#338,#339,#340);
#299=AXIS2_PLACEMENT_3D('',#341,#342,#343);
#300=DIRECTION('',(0.0,0.0,-1.0));
#301=CARTESIAN_POINT('',(0.0,0.0,-0.800000000000001));
#302=DIRECTION('',(0.0,0.0,1.0));
#303=DIRECTION('',(-1.0,0.0,0.0));
#304=DIRECTION('',(-0.0,-0.0,1.0));
#305=CARTESIAN_POINT('',(0.0,0.0,-57.0));
#306=DIRECTION('',(0.0,0.0,-1.0));
#307=DIRECTION('',(1.0,0.0,0.0));
#308=DIRECTION('',(0.707106781186548,-8.65956056235493E-17,0.707106781186548));
#309=DIRECTION('',(0.707106781186548,-8.65956056235493E-17,-0.707106781186548));
#310=CARTESIAN_POINT('',(0.0,0.0,0.0));
#311=DIRECTION('',(0.0,0.0,-1.0));
#312=DIRECTION('',(-1.0,0.0,0.0));
#313=CARTESIAN_POINT('',(0.0,0.0,0.0));
#314=DIRECTION('',(0.0,0.0,-1.0));
#315=DIRECTION('',(-1.0,0.0,0.0));
#316=CARTESIAN_POINT('',(0.0,0.0,-0.800000000000001));
#317=DIRECTION('',(0.0,0.0,1.0));
#318=DIRECTION('',(-1.0,0.0,0.0));
#319=CARTESIAN_POINT('',(0.0,0.0,-57.0));
#320=DIRECTION('',(0.0,0.0,-1.0));
#321=DIRECTION('',(1.0,0.0,0.0));
#322=DIRECTION('',(-0.0311200072654622,-3.81110172870906E-18,-0.999515655278994));
#323=CARTESIAN_POINT('',(0.0,0.0,-57.0));
#324=DIRECTION('',(0.0,0.0,-1.0));
#325=DIRECTION('',(1.0,0.0,0.0));
#326=DIRECTION('',(-0.0311200072654622,-3.81110172870906E-18,0.999515655278994));
#327=CARTESIAN_POINT('',(0.0,0.0,-87.000968689442));
#328=DIRECTION('',(0.0,0.0,-1.0));
#329=DIRECTION('',(-1.0,1.22464679914735E-16,0.0));
#330=DIRECTION('',(-0.718025071729897,1.75865421160313E-16,0.696017238556112));
#331=CARTESIAN_POINT('',(0.0,0.0,-89.0));
#332=DIRECTION('',(0.0,0.0,1.0));
#333=DIRECTION('',(-1.0,1.22464679914735E-16,-0.0));
#334=DIRECTION('',(-0.718025071729897,1.75865421160313E-16,-0.696017238556112));
#335=CARTESIAN_POINT('',(0.0,0.0,-87.000968689442));
#336=DIRECTION('',(0.0,0.0,-1.0));
#337=DIRECTION('',(-1.0,1.22464679914735E-16,0.0));
#338=CARTESIAN_POINT('',(0.0,0.0,-89.0));
#339=DIRECTION('',(0.0,0.0,1.0));
#340=DIRECTION('',(-1.0,1.22464679914735E-16,-0.0));
#341=CARTESIAN_POINT('',(0.0,0.0,-57.0));
#342=DIRECTION('',(0.0,0.0,-1.0));
#343=DIRECTION('',(1.0,0.0,0.0));
ENDSEC;
END-ISO-10303-21;
