ISO-10303-21;
HEADER;
FILE_DESCRIPTION(('STEP AP214'),'1');
FILE_NAME('NS03005C2.7_P60_AC.stp','2022-06-29T14:40:28',(' '),(' '),'Spatial InterOp 3D',' ',' ');
FILE_SCHEMA(('AUTOMOTIVE_DESIGN { 1 0 10303 214 1 1 1 1 }'));
ENDSEC;
DATA;
#1=MECHANICAL_DESIGN_GEOMETRIC_PRESENTATION_REPRESENTATION(' ',(#12,#13,#14),#8);
#2=PRODUCT_DEFINITION_CONTEXT('',#15,'design');
#3=APPLICATION_PROTOCOL_DEFINITION('INTERNATIONAL STANDARD','automotive_design',1994,#15);
#4=PRODUCT_CATEGORY_RELATIONSHIP('NONE','NONE',#16,#17);
#5=SHAPE_DEFINITION_REPRESENTATION(#18,#19);
#6=SHAPE_DEFINITION_REPRESENTATION(#18,#20);
#7=SHAPE_DEFINITION_REPRESENTATION(#18,#21);
#8= (GEOMETRIC_REPRESENTATION_CONTEXT(3)GLOBAL_UNCERTAINTY_ASSIGNED_CONTEXT((#24))GLOBAL_UNIT_ASSIGNED_CONTEXT((#26,#27,#28))REPRESENTATION_CONTEXT('NONE','WORKSPACE'));
#12=STYLED_ITEM('',(#30),#31);
#13=STYLED_ITEM('',(#32),#33);
#14=STYLED_ITEM('',(#34),#35);
#15=APPLICATION_CONTEXT(' ');
#16=PRODUCT_CATEGORY('part','NONE');
#17=PRODUCT_RELATED_PRODUCT_CATEGORY('detail',' ',(#36));
#18=PRODUCT_DEFINITION_SHAPE('NONE','NONE',#37);
#19=ADVANCED_BREP_SHAPE_REPRESENTATION('1',(#31,#38),#8);
#20=ADVANCED_BREP_SHAPE_REPRESENTATION('2',(#33,#39),#8);
#21=ADVANCED_BREP_SHAPE_REPRESENTATION('3',(#35,#40),#8);
#24=UNCERTAINTY_MEASURE_WITH_UNIT(LENGTH_MEASURE(1.0E-06),#26,'','');
#26= (CONVERSION_BASED_UNIT('MILLIMETRE',#43)LENGTH_UNIT()NAMED_UNIT(#46));
#27= (NAMED_UNIT(#48)PLANE_ANGLE_UNIT()SI_UNIT($,.RADIAN.));
#28= (NAMED_UNIT(#48)SOLID_ANGLE_UNIT()SI_UNIT($,.STERADIAN.));
#30=PRESENTATION_STYLE_ASSIGNMENT((#54));
#31=MANIFOLD_SOLID_BREP('1',#55);
#32=PRESENTATION_STYLE_ASSIGNMENT((#56));
#33=MANIFOLD_SOLID_BREP('2',#57);
#34=PRESENTATION_STYLE_ASSIGNMENT((#58));
#35=MANIFOLD_SOLID_BREP('3',#59);
#36=PRODUCT('1','','PART--DESC',(#60));
#37=PRODUCT_DEFINITION('','NONE',#61,#2);
#38=AXIS2_PLACEMENT_3D('',#62,#63,#64);
#39=AXIS2_PLACEMENT_3D('',#65,#66,#67);
#40=AXIS2_PLACEMENT_3D('',#68,#69,#70);
#43=LENGTH_MEASURE_WITH_UNIT(LENGTH_MEASURE(1.0),#71);
#46=DIMENSIONAL_EXPONENTS(1.0,0.0,0.0,0.0,0.0,0.0,0.0);
#48=DIMENSIONAL_EXPONENTS(0.0,0.0,0.0,0.0,0.0,0.0,0.0);
#54=SURFACE_STYLE_USAGE(.BOTH.,#72);
#55=CLOSED_SHELL('',(#73,#74,#75,#76,#77,#78,#79,#80));
#56=SURFACE_STYLE_USAGE(.BOTH.,#81);
#57=CLOSED_SHELL('',(#82,#83,#84,#85));
#58=SURFACE_STYLE_USAGE(.BOTH.,#86);
#59=CLOSED_SHELL('',(#87,#88,#89,#90));
#60=PRODUCT_CONTEXT('',#15,'mechanical');
#61=PRODUCT_DEFINITION_FORMATION_WITH_SPECIFIED_SOURCE(' ','NONE',#36,.NOT_KNOWN.);
#62=CARTESIAN_POINT('',(0.0,0.0,0.0));
#63=DIRECTION('',(0.0,0.0,1.0));
#64=DIRECTION('',(1.0,0.0,0.0));
#65=CARTESIAN_POINT('',(0.0,0.0,0.0));
#66=DIRECTION('',(0.0,0.0,1.0));
#67=DIRECTION('',(1.0,0.0,0.0));
#68=CARTESIAN_POINT('',(0.0,0.0,0.0));
#69=DIRECTION('',(0.0,0.0,1.0));
#70=DIRECTION('',(1.0,0.0,0.0));
#71= (NAMED_UNIT(#46)LENGTH_UNIT()SI_UNIT(.MILLI.,.METRE.));
#72=SURFACE_SIDE_STYLE('',(#92));
#73=ADVANCED_FACE('',(#93),#94,.T.);
#74=ADVANCED_FACE('',(#95),#96,.T.);
#75=ADVANCED_FACE('',(#97),#98,.T.);
#76=ADVANCED_FACE('',(#99),#100,.T.);
#77=ADVANCED_FACE('',(#101),#102,.T.);
#78=ADVANCED_FACE('',(#103),#104,.T.);
#79=ADVANCED_FACE('',(#105),#106,.T.);
#80=ADVANCED_FACE('',(#107),#108,.T.);
#81=SURFACE_SIDE_STYLE('',(#109));
#82=ADVANCED_FACE('',(#110),#111,.T.);
#83=ADVANCED_FACE('',(#112),#113,.T.);
#84=ADVANCED_FACE('',(#114),#115,.T.);
#85=ADVANCED_FACE('',(#116),#117,.F.);
#86=SURFACE_SIDE_STYLE('',(#118));
#87=ADVANCED_FACE('',(#119),#120,.T.);
#88=ADVANCED_FACE('',(#121),#122,.T.);
#89=ADVANCED_FACE('',(#123),#124,.T.);
#90=ADVANCED_FACE('',(#125),#126,.T.);
#92=SURFACE_STYLE_FILL_AREA(#127);
#93=FACE_OUTER_BOUND('',#128,.T.);
#94=CONICAL_SURFACE('',#129,1.2,0.785398163397448);
#95=FACE_OUTER_BOUND('',#130,.T.);
#96=CYLINDRICAL_SURFACE('',#131,1.5);
#97=FACE_OUTER_BOUND('',#132,.T.);
#98=CONICAL_SURFACE('',#133,0.160254037844387,0.26179938779915);
#99=FACE_OUTER_BOUND('',#134,.T.);
#100=CONICAL_SURFACE('',#135,0.160254037844387,0.26179938779915);
#101=FACE_OUTER_BOUND('',#136,.T.);
#102=CYLINDRICAL_SURFACE('',#137,1.5);
#103=FACE_OUTER_BOUND('',#138,.T.);
#104=PLANE('',#139);
#105=FACE_OUTER_BOUND('',#140,.T.);
#106=CONICAL_SURFACE('',#141,1.2,0.785398163397448);
#107=FACE_OUTER_BOUND('',#142,.T.);
#108=PLANE('',#143);
#109=SURFACE_STYLE_FILL_AREA(#144);
#110=FACE_OUTER_BOUND('',#145,.T.);
#111=CYLINDRICAL_SURFACE('',#146,0.160254037844387);
#112=FACE_OUTER_BOUND('',#147,.T.);
#113=CYLINDRICAL_SURFACE('',#148,0.160254037844387);
#114=FACE_OUTER_BOUND('',#149,.T.);
#115=PLANE('',#150);
#116=FACE_OUTER_BOUND('',#151,.T.);
#117=PLANE('',#152);
#118=SURFACE_STYLE_FILL_AREA(#153);
#119=FACE_OUTER_BOUND('',#154,.T.);
#120=CYLINDRICAL_SURFACE('',#155,0.289999999999999);
#121=FACE_OUTER_BOUND('',#156,.T.);
#122=CYLINDRICAL_SURFACE('',#157,0.289999999999999);
#123=FACE_OUTER_BOUND('',#158,.T.);
#124=PLANE('',#159);
#125=FACE_OUTER_BOUND('',#160,.T.);
#126=PLANE('',#161);
#127=FILL_AREA_STYLE('',(#162));
#128=EDGE_LOOP('',(#163,#164,#165,#166));
#129=AXIS2_PLACEMENT_3D('',#167,#168,#169);
#130=EDGE_LOOP('',(#170,#171,#172,#173));
#131=AXIS2_PLACEMENT_3D('',#174,#175,#176);
#132=EDGE_LOOP('',(#177,#178,#179,#180));
#133=AXIS2_PLACEMENT_3D('',#181,#182,#183);
#134=EDGE_LOOP('',(#184,#185,#186,#187));
#135=AXIS2_PLACEMENT_3D('',#188,#189,#190);
#136=EDGE_LOOP('',(#191,#192,#193,#194));
#137=AXIS2_PLACEMENT_3D('',#195,#196,#197);
#138=EDGE_LOOP('',(#198,#199));
#139=AXIS2_PLACEMENT_3D('',#200,#201,#202);
#140=EDGE_LOOP('',(#203,#204,#205,#206));
#141=AXIS2_PLACEMENT_3D('',#207,#208,#209);
#142=EDGE_LOOP('',(#210,#211));
#143=AXIS2_PLACEMENT_3D('',#212,#213,#214);
#144=FILL_AREA_STYLE('',(#215));
#145=EDGE_LOOP('',(#216,#217,#218,#219));
#146=AXIS2_PLACEMENT_3D('',#220,#221,#222);
#147=EDGE_LOOP('',(#223,#224,#225,#226));
#148=AXIS2_PLACEMENT_3D('',#227,#228,#229);
#149=EDGE_LOOP('',(#230,#231));
#150=AXIS2_PLACEMENT_3D('',#232,#233,#234);
#151=EDGE_LOOP('',(#235,#236));
#152=AXIS2_PLACEMENT_3D('',#237,#238,#239);
#153=FILL_AREA_STYLE('',(#240));
#154=EDGE_LOOP('',(#241,#242,#243,#244));
#155=AXIS2_PLACEMENT_3D('',#245,#246,#247);
#156=EDGE_LOOP('',(#248,#249,#250,#251));
#157=AXIS2_PLACEMENT_3D('',#252,#253,#254);
#158=EDGE_LOOP('',(#255,#256));
#159=AXIS2_PLACEMENT_3D('',#257,#258,#259);
#160=EDGE_LOOP('',(#260,#261));
#161=AXIS2_PLACEMENT_3D('',#262,#263,#264);
#162=FILL_AREA_STYLE_COLOUR('',#265);
#163=ORIENTED_EDGE('',*,*,#266,.F.);
#164=ORIENTED_EDGE('',*,*,#267,.T.);
#165=ORIENTED_EDGE('',*,*,#268,.F.);
#166=ORIENTED_EDGE('',*,*,#269,.T.);
#167=CARTESIAN_POINT('',(0.0,0.0,0.0));
#168=DIRECTION('',(-0.0,-0.0,-1.0));
#169=DIRECTION('',(-1.0,0.0,0.0));
#170=ORIENTED_EDGE('',*,*,#270,.F.);
#171=ORIENTED_EDGE('',*,*,#267,.F.);
#172=ORIENTED_EDGE('',*,*,#271,.F.);
#173=ORIENTED_EDGE('',*,*,#272,.F.);
#174=CARTESIAN_POINT('',(0.0,0.0,-18.15));
#175=DIRECTION('',(0.0,0.0,-1.0));
#176=DIRECTION('',(1.0,0.0,0.0));
#177=ORIENTED_EDGE('',*,*,#273,.F.);
#178=ORIENTED_EDGE('',*,*,#274,.T.);
#179=ORIENTED_EDGE('',*,*,#275,.F.);
#180=ORIENTED_EDGE('',*,*,#276,.T.);
#181=CARTESIAN_POINT('',(0.0,0.0,-36.3));
#182=DIRECTION('',(-0.0,-0.0,1.0));
#183=DIRECTION('',(-1.0,0.0,0.0));
#184=ORIENTED_EDGE('',*,*,#273,.T.);
#185=ORIENTED_EDGE('',*,*,#277,.T.);
#186=ORIENTED_EDGE('',*,*,#275,.T.);
#187=ORIENTED_EDGE('',*,*,#272,.T.);
#188=CARTESIAN_POINT('',(0.0,0.0,-36.3));
#189=DIRECTION('',(-0.0,-0.0,1.0));
#190=DIRECTION('',(-1.0,0.0,0.0));
#191=ORIENTED_EDGE('',*,*,#270,.T.);
#192=ORIENTED_EDGE('',*,*,#274,.F.);
#193=ORIENTED_EDGE('',*,*,#271,.T.);
#194=ORIENTED_EDGE('',*,*,#278,.F.);
#195=CARTESIAN_POINT('',(0.0,0.0,-18.15));
#196=DIRECTION('',(0.0,0.0,-1.0));
#197=DIRECTION('',(1.0,0.0,0.0));
#198=ORIENTED_EDGE('',*,*,#276,.F.);
#199=ORIENTED_EDGE('',*,*,#277,.F.);
#200=CARTESIAN_POINT('',(0.0,0.0,-36.3));
#201=DIRECTION('',(0.0,0.0,-1.0));
#202=DIRECTION('',(1.0,0.0,0.0));
#203=ORIENTED_EDGE('',*,*,#266,.T.);
#204=ORIENTED_EDGE('',*,*,#279,.T.);
#205=ORIENTED_EDGE('',*,*,#268,.T.);
#206=ORIENTED_EDGE('',*,*,#278,.T.);
#207=CARTESIAN_POINT('',(0.0,0.0,0.0));
#208=DIRECTION('',(-0.0,-0.0,-1.0));
#209=DIRECTION('',(-1.0,0.0,0.0));
#210=ORIENTED_EDGE('',*,*,#269,.F.);
#211=ORIENTED_EDGE('',*,*,#279,.F.);
#212=CARTESIAN_POINT('',(0.0,0.0,0.0));
#213=DIRECTION('',(0.0,0.0,1.0));
#214=DIRECTION('',(-1.0,0.0,0.0));
#215=FILL_AREA_STYLE_COLOUR('',#280);
#216=ORIENTED_EDGE('',*,*,#281,.F.);
#217=ORIENTED_EDGE('',*,*,#282,.F.);
#218=ORIENTED_EDGE('',*,*,#283,.F.);
#219=ORIENTED_EDGE('',*,*,#284,.T.);
#220=CARTESIAN_POINT('',(0.0,0.0,-36.3));
#221=DIRECTION('',(0.0,0.0,-1.0));
#222=DIRECTION('',(-1.0,0.0,0.0));
#223=ORIENTED_EDGE('',*,*,#281,.T.);
#224=ORIENTED_EDGE('',*,*,#285,.T.);
#225=ORIENTED_EDGE('',*,*,#283,.T.);
#226=ORIENTED_EDGE('',*,*,#286,.F.);
#227=CARTESIAN_POINT('',(0.0,0.0,-36.3));
#228=DIRECTION('',(0.0,0.0,-1.0));
#229=DIRECTION('',(-1.0,0.0,0.0));
#230=ORIENTED_EDGE('',*,*,#284,.F.);
#231=ORIENTED_EDGE('',*,*,#285,.F.);
#232=CARTESIAN_POINT('',(0.0,0.0,-38.84));
#233=DIRECTION('',(0.0,0.0,-1.0));
#234=DIRECTION('',(1.0,0.0,0.0));
#235=ORIENTED_EDGE('',*,*,#282,.T.);
#236=ORIENTED_EDGE('',*,*,#286,.T.);
#237=CARTESIAN_POINT('',(0.0,0.0,-36.3));
#238=DIRECTION('',(0.0,0.0,-1.0));
#239=DIRECTION('',(1.0,0.0,0.0));
#240=FILL_AREA_STYLE_COLOUR('',#287);
#241=ORIENTED_EDGE('',*,*,#288,.F.);
#242=ORIENTED_EDGE('',*,*,#289,.F.);
#243=ORIENTED_EDGE('',*,*,#290,.F.);
#244=ORIENTED_EDGE('',*,*,#291,.F.);
#245=CARTESIAN_POINT('',(0.0,0.0,-38.92));
#246=DIRECTION('',(0.0,0.0,-1.0));
#247=DIRECTION('',(1.0,0.0,0.0));
#248=ORIENTED_EDGE('',*,*,#288,.T.);
#249=ORIENTED_EDGE('',*,*,#292,.F.);
#250=ORIENTED_EDGE('',*,*,#290,.T.);
#251=ORIENTED_EDGE('',*,*,#293,.F.);
#252=CARTESIAN_POINT('',(0.0,0.0,-38.92));
#253=DIRECTION('',(0.0,0.0,-1.0));
#254=DIRECTION('',(1.0,0.0,0.0));
#255=ORIENTED_EDGE('',*,*,#293,.T.);
#256=ORIENTED_EDGE('',*,*,#289,.T.);
#257=CARTESIAN_POINT('',(0.0,0.0,-38.84));
#258=DIRECTION('',(0.0,0.0,1.0));
#259=DIRECTION('',(-1.0,0.0,0.0));
#260=ORIENTED_EDGE('',*,*,#291,.T.);
#261=ORIENTED_EDGE('',*,*,#292,.T.);
#262=CARTESIAN_POINT('',(0.0,0.0,-39.0));
#263=DIRECTION('',(0.0,0.0,-1.0));
#264=DIRECTION('',(1.0,0.0,0.0));
#265=COLOUR_RGB('',0.756862759590149,0.756862759590149,0.756862759590149);
#266=EDGE_CURVE('',#294,#295,#296,.T.);
#267=EDGE_CURVE('',#294,#297,#298,.T.);
#268=EDGE_CURVE('',#299,#297,#300,.T.);
#269=EDGE_CURVE('',#299,#295,#301,.T.);
#270=EDGE_CURVE('',#297,#302,#303,.T.);
#271=EDGE_CURVE('',#304,#294,#305,.T.);
#272=EDGE_CURVE('',#302,#304,#306,.T.);
#273=EDGE_CURVE('',#304,#307,#308,.T.);
#274=EDGE_CURVE('',#304,#302,#309,.T.);
#275=EDGE_CURVE('',#310,#302,#311,.T.);
#276=EDGE_CURVE('',#310,#307,#312,.T.);
#277=EDGE_CURVE('',#307,#310,#313,.T.);
#278=EDGE_CURVE('',#297,#294,#314,.T.);
#279=EDGE_CURVE('',#295,#299,#315,.T.);
#280=COLOUR_RGB('',0.756862759590149,0.756862759590149,0.756862759590149);
#281=EDGE_CURVE('',#316,#317,#318,.T.);
#282=EDGE_CURVE('',#319,#316,#320,.T.);
#283=EDGE_CURVE('',#321,#319,#322,.T.);
#284=EDGE_CURVE('',#321,#317,#323,.T.);
#285=EDGE_CURVE('',#317,#321,#324,.T.);
#286=EDGE_CURVE('',#316,#319,#325,.T.);
#287=COLOUR_RGB('',0.0,1.0,0.0);
#288=EDGE_CURVE('',#326,#327,#328,.T.);
#289=EDGE_CURVE('',#329,#326,#330,.T.);
#290=EDGE_CURVE('',#331,#329,#332,.T.);
#291=EDGE_CURVE('',#327,#331,#333,.T.);
#292=EDGE_CURVE('',#331,#327,#334,.T.);
#293=EDGE_CURVE('',#326,#329,#335,.T.);
#294=VERTEX_POINT('',#336);
#295=VERTEX_POINT('',#337);
#296=LINE('',#338,#339);
#297=VERTEX_POINT('',#340);
#298=CIRCLE('',#341,1.5);
#299=VERTEX_POINT('',#342);
#300=LINE('',#343,#344);
#301=CIRCLE('',#345,1.2);
#302=VERTEX_POINT('',#346);
#303=LINE('',#347,#348);
#304=VERTEX_POINT('',#349);
#305=LINE('',#350,#351);
#306=CIRCLE('',#352,1.5);
#307=VERTEX_POINT('',#353);
#308=LINE('',#354,#355);
#309=CIRCLE('',#356,1.5);
#310=VERTEX_POINT('',#357);
#311=LINE('',#358,#359);
#312=CIRCLE('',#360,0.160254037844387);
#313=CIRCLE('',#361,0.160254037844387);
#314=CIRCLE('',#362,1.5);
#315=CIRCLE('',#363,1.2);
#316=VERTEX_POINT('',#364);
#317=VERTEX_POINT('',#365);
#318=LINE('',#366,#367);
#319=VERTEX_POINT('',#368);
#320=CIRCLE('',#369,0.160254037844387);
#321=VERTEX_POINT('',#370);
#322=LINE('',#371,#372);
#323=CIRCLE('',#373,0.160254037844387);
#324=CIRCLE('',#374,0.160254037844387);
#325=CIRCLE('',#375,0.160254037844387);
#326=VERTEX_POINT('',#376);
#327=VERTEX_POINT('',#377);
#328=LINE('',#378,#379);
#329=VERTEX_POINT('',#380);
#330=CIRCLE('',#381,0.289999999999999);
#331=VERTEX_POINT('',#382);
#332=LINE('',#383,#384);
#333=CIRCLE('',#385,0.289999999999999);
#334=CIRCLE('',#386,0.289999999999999);
#335=CIRCLE('',#387,0.289999999999999);
#336=CARTESIAN_POINT('',(-1.5,-1.83697019872103E-16,-0.300000000000002));
#337=CARTESIAN_POINT('',(-1.2,1.46957615897683E-16,0.0));
#338=CARTESIAN_POINT('',(-1.2,1.46957615897683E-16,0.0));
#339=VECTOR('',#388,1.0);
#340=CARTESIAN_POINT('',(1.5,1.83697019872103E-16,-0.300000000000001));
#341=AXIS2_PLACEMENT_3D('',#389,#390,#391);
#342=CARTESIAN_POINT('',(1.2,-1.46957615897683E-16,0.0));
#343=CARTESIAN_POINT('',(1.2,-1.46957615897683E-16,0.0));
#344=VECTOR('',#392,1.0);
#345=AXIS2_PLACEMENT_3D('',#393,#394,#395);
#346=CARTESIAN_POINT('',(1.5,-1.83697019872103E-16,-31.3));
#347=CARTESIAN_POINT('',(1.5,1.83697019872103E-16,-18.15));
#348=VECTOR('',#396,1.0);
#349=CARTESIAN_POINT('',(-1.5,-1.83697019872103E-16,-31.3));
#350=CARTESIAN_POINT('',(-1.5,-1.83697019872103E-16,-18.15));
#351=VECTOR('',#397,1.0);
#352=AXIS2_PLACEMENT_3D('',#398,#399,#400);
#353=CARTESIAN_POINT('',(-0.160254037844387,-1.96254594496568E-17,-36.3));
#354=CARTESIAN_POINT('',(-0.160254037844387,-1.96254594496568E-17,-36.3));
#355=VECTOR('',#401,1.0);
#356=AXIS2_PLACEMENT_3D('',#402,#403,#404);
#357=CARTESIAN_POINT('',(0.160254037844387,1.96254594496568E-17,-36.3));
#358=CARTESIAN_POINT('',(0.160254037844387,1.96254594496568E-17,-36.3));
#359=VECTOR('',#405,1.0);
#360=AXIS2_PLACEMENT_3D('',#406,#407,#408);
#361=AXIS2_PLACEMENT_3D('',#409,#410,#411);
#362=AXIS2_PLACEMENT_3D('',#412,#413,#414);
#363=AXIS2_PLACEMENT_3D('',#415,#416,#417);
#364=CARTESIAN_POINT('',(-0.160254037844387,-1.96254594496568E-17,-36.3));
#365=CARTESIAN_POINT('',(-0.160254037844387,-1.96254594496568E-17,-38.84));
#366=CARTESIAN_POINT('',(-0.160254037844387,-1.96254594496568E-17,-36.3));
#367=VECTOR('',#418,1.0);
#368=CARTESIAN_POINT('',(0.160254037844387,1.96254594496568E-17,-36.3));
#369=AXIS2_PLACEMENT_3D('',#419,#420,#421);
#370=CARTESIAN_POINT('',(0.160254037844387,1.96254594496568E-17,-38.84));
#371=CARTESIAN_POINT('',(0.160254037844387,1.96254594496568E-17,-36.3));
#372=VECTOR('',#422,1.0);
#373=AXIS2_PLACEMENT_3D('',#423,#424,#425);
#374=AXIS2_PLACEMENT_3D('',#426,#427,#428);
#375=AXIS2_PLACEMENT_3D('',#429,#430,#431);
#376=CARTESIAN_POINT('',(0.289999999999999,0.0,-38.84));
#377=CARTESIAN_POINT('',(0.289999999999999,0.0,-39.0));
#378=CARTESIAN_POINT('',(0.289999999999999,3.55147571752732E-17,-38.92));
#379=VECTOR('',#432,1.0);
#380=CARTESIAN_POINT('',(-0.289999999999999,-3.55147571752732E-17,-38.84));
#381=AXIS2_PLACEMENT_3D('',#433,#434,#435);
#382=CARTESIAN_POINT('',(-0.289999999999999,-3.55147571752732E-17,-39.0));
#383=CARTESIAN_POINT('',(-0.289999999999999,-3.55147571752732E-17,-38.92));
#384=VECTOR('',#436,1.0);
#385=AXIS2_PLACEMENT_3D('',#437,#438,#439);
#386=AXIS2_PLACEMENT_3D('',#440,#441,#442);
#387=AXIS2_PLACEMENT_3D('',#443,#444,#445);
#388=DIRECTION('',(0.707106781186548,-8.65956056235493E-17,0.707106781186548));
#389=CARTESIAN_POINT('',(0.0,0.0,-0.300000000000001));
#390=DIRECTION('',(0.0,0.0,1.0));
#391=DIRECTION('',(-1.0,0.0,0.0));
#392=DIRECTION('',(0.707106781186548,-8.65956056235493E-17,-0.707106781186548));
#393=CARTESIAN_POINT('',(0.0,0.0,0.0));
#394=DIRECTION('',(0.0,0.0,-1.0));
#395=DIRECTION('',(-1.0,0.0,0.0));
#396=DIRECTION('',(0.0,0.0,-1.0));
#397=DIRECTION('',(-0.0,-0.0,1.0));
#398=CARTESIAN_POINT('',(0.0,0.0,-31.3));
#399=DIRECTION('',(0.0,0.0,-1.0));
#400=DIRECTION('',(-1.0,0.0,0.0));
#401=DIRECTION('',(0.258819045102521,3.16961915143176E-17,-0.965925826289068));
#402=CARTESIAN_POINT('',(0.0,0.0,-31.3));
#403=DIRECTION('',(0.0,0.0,-1.0));
#404=DIRECTION('',(-1.0,0.0,0.0));
#405=DIRECTION('',(0.258819045102521,3.16961915143176E-17,0.965925826289068));
#406=CARTESIAN_POINT('',(0.0,0.0,-36.3));
#407=DIRECTION('',(0.0,0.0,1.0));
#408=DIRECTION('',(-1.0,0.0,0.0));
#409=CARTESIAN_POINT('',(0.0,0.0,-36.3));
#410=DIRECTION('',(0.0,0.0,1.0));
#411=DIRECTION('',(-1.0,0.0,0.0));
#412=CARTESIAN_POINT('',(0.0,0.0,-0.300000000000001));
#413=DIRECTION('',(0.0,0.0,1.0));
#414=DIRECTION('',(-1.0,0.0,0.0));
#415=CARTESIAN_POINT('',(0.0,0.0,0.0));
#416=DIRECTION('',(0.0,0.0,-1.0));
#417=DIRECTION('',(-1.0,0.0,0.0));
#418=DIRECTION('',(0.0,0.0,-1.0));
#419=CARTESIAN_POINT('',(0.0,0.0,-36.3));
#420=DIRECTION('',(0.0,0.0,1.0));
#421=DIRECTION('',(-1.0,0.0,0.0));
#422=DIRECTION('',(-0.0,-0.0,1.0));
#423=CARTESIAN_POINT('',(0.0,0.0,-38.84));
#424=DIRECTION('',(0.0,0.0,1.0));
#425=DIRECTION('',(-1.0,0.0,0.0));
#426=CARTESIAN_POINT('',(0.0,0.0,-38.84));
#427=DIRECTION('',(0.0,0.0,1.0));
#428=DIRECTION('',(-1.0,0.0,0.0));
#429=CARTESIAN_POINT('',(0.0,0.0,-36.3));
#430=DIRECTION('',(0.0,0.0,1.0));
#431=DIRECTION('',(-1.0,0.0,0.0));
#432=DIRECTION('',(0.0,0.0,-1.0));
#433=CARTESIAN_POINT('',(0.0,0.0,-38.84));
#434=DIRECTION('',(0.0,0.0,1.0));
#435=DIRECTION('',(1.0,0.0,0.0));
#436=DIRECTION('',(-0.0,-0.0,1.0));
#437=CARTESIAN_POINT('',(0.0,0.0,-39.0));
#438=DIRECTION('',(0.0,0.0,-1.0));
#439=DIRECTION('',(1.0,0.0,0.0));
#440=CARTESIAN_POINT('',(0.0,0.0,-39.0));
#441=DIRECTION('',(0.0,0.0,-1.0));
#442=DIRECTION('',(1.0,0.0,0.0));
#443=CARTESIAN_POINT('',(0.0,0.0,-38.84));
#444=DIRECTION('',(0.0,0.0,1.0));
#445=DIRECTION('',(1.0,0.0,0.0));
ENDSEC;
END-ISO-10303-21;
