ISO-10303-21;
HEADER;
FILE_DESCRIPTION(('STEP AP214'),'1');
FILE_NAME('M0807D19_FC.stp','2024-04-03T16:54:01',(' '),(' '),'Spatial InterOp 3D',' ',' ');
FILE_SCHEMA(('AUTOMOTIVE_DESIGN { 1 0 10303 214 1 1 1 1 }'));
ENDSEC;
DATA;
#1=MECHANICAL_DESIGN_GEOMETRIC_PRESENTATION_REPRESENTATION(' ',(#11,#12),#7);
#2=PRODUCT_DEFINITION_CONTEXT('',#13,'design');
#3=APPLICATION_PROTOCOL_DEFINITION('INTERNATIONAL STANDARD','automotive_design',1994,#13);
#4=PRODUCT_CATEGORY_RELATIONSHIP('NONE','NONE',#14,#15);
#5=SHAPE_DEFINITION_REPRESENTATION(#16,#17);
#6=SHAPE_DEFINITION_REPRESENTATION(#16,#18);
#7= (GEOMETRIC_REPRESENTATION_CONTEXT(3)GLOBAL_UNCERTAINTY_ASSIGNED_CONTEXT((#21))GLOBAL_UNIT_ASSIGNED_CONTEXT((#23,#24,#25))REPRESENTATION_CONTEXT('NONE','WORKSPACE'));
#11=STYLED_ITEM('',(#27),#28);
#12=STYLED_ITEM('',(#29),#30);
#13=APPLICATION_CONTEXT(' ');
#14=PRODUCT_CATEGORY('part','NONE');
#15=PRODUCT_RELATED_PRODUCT_CATEGORY('detail',' ',(#31));
#16=PRODUCT_DEFINITION_SHAPE('NONE','NONE',#32);
#17=ADVANCED_BREP_SHAPE_REPRESENTATION('1',(#28,#33),#7);
#18=ADVANCED_BREP_SHAPE_REPRESENTATION('2',(#30,#34),#7);
#21=UNCERTAINTY_MEASURE_WITH_UNIT(LENGTH_MEASURE(1.0E-06),#23,'','');
#23= (CONVERSION_BASED_UNIT('MILLIMETRE',#37)LENGTH_UNIT()NAMED_UNIT(#40));
#24= (NAMED_UNIT(#42)PLANE_ANGLE_UNIT()SI_UNIT($,.RADIAN.));
#25= (NAMED_UNIT(#42)SOLID_ANGLE_UNIT()SI_UNIT($,.STERADIAN.));
#27=PRESENTATION_STYLE_ASSIGNMENT((#48));
#28=MANIFOLD_SOLID_BREP('1',#49);
#29=PRESENTATION_STYLE_ASSIGNMENT((#50));
#30=MANIFOLD_SOLID_BREP('2',#51);
#31=PRODUCT('1','','PART--DESC',(#52));
#32=PRODUCT_DEFINITION('','NONE',#53,#2);
#33=AXIS2_PLACEMENT_3D('',#54,#55,#56);
#34=AXIS2_PLACEMENT_3D('',#57,#58,#59);
#37=LENGTH_MEASURE_WITH_UNIT(LENGTH_MEASURE(1.0),#60);
#40=DIMENSIONAL_EXPONENTS(1.0,0.0,0.0,0.0,0.0,0.0,0.0);
#42=DIMENSIONAL_EXPONENTS(0.0,0.0,0.0,0.0,0.0,0.0,0.0);
#48=SURFACE_STYLE_USAGE(.BOTH.,#61);
#49=CLOSED_SHELL('',(#62,#63,#64,#65,#66,#67,#68,#69));
#50=SURFACE_STYLE_USAGE(.BOTH.,#70);
#51=CLOSED_SHELL('',(#71,#72,#73,#74));
#52=PRODUCT_CONTEXT('',#13,'mechanical');
#53=PRODUCT_DEFINITION_FORMATION_WITH_SPECIFIED_SOURCE(' ','NONE',#31,.NOT_KNOWN.);
#54=CARTESIAN_POINT('',(0.0,0.0,0.0));
#55=DIRECTION('',(0.0,0.0,1.0));
#56=DIRECTION('',(1.0,0.0,0.0));
#57=CARTESIAN_POINT('',(0.0,0.0,0.0));
#58=DIRECTION('',(0.0,0.0,1.0));
#59=DIRECTION('',(1.0,0.0,0.0));
#60= (NAMED_UNIT(#40)LENGTH_UNIT()SI_UNIT(.MILLI.,.METRE.));
#61=SURFACE_SIDE_STYLE('',(#76));
#62=ADVANCED_FACE('',(#77),#78,.T.);
#63=ADVANCED_FACE('',(#79),#80,.T.);
#64=ADVANCED_FACE('',(#81),#82,.T.);
#65=ADVANCED_FACE('',(#83),#84,.T.);
#66=ADVANCED_FACE('',(#85),#86,.T.);
#67=ADVANCED_FACE('',(#87),#88,.T.);
#68=ADVANCED_FACE('',(#89),#90,.T.);
#69=ADVANCED_FACE('',(#91),#92,.T.);
#70=SURFACE_SIDE_STYLE('',(#93));
#71=ADVANCED_FACE('',(#94),#95,.T.);
#72=ADVANCED_FACE('',(#96),#97,.T.);
#73=ADVANCED_FACE('',(#98),#99,.T.);
#74=ADVANCED_FACE('',(#100),#101,.F.);
#76=SURFACE_STYLE_FILL_AREA(#102);
#77=FACE_OUTER_BOUND('',#103,.T.);
#78=CONICAL_SURFACE('',#104,3.5,0.785398163397448);
#79=FACE_OUTER_BOUND('',#105,.T.);
#80=CYLINDRICAL_SURFACE('',#106,4.0);
#81=FACE_OUTER_BOUND('',#107,.T.);
#82=CONICAL_SURFACE('',#108,3.50000680692352,0.26179938779915);
#83=FACE_OUTER_BOUND('',#109,.T.);
#84=CONICAL_SURFACE('',#110,3.50000680692352,0.26179938779915);
#85=FACE_OUTER_BOUND('',#111,.T.);
#86=CYLINDRICAL_SURFACE('',#112,4.0);
#87=FACE_OUTER_BOUND('',#113,.T.);
#88=PLANE('',#114);
#89=FACE_OUTER_BOUND('',#115,.T.);
#90=CONICAL_SURFACE('',#116,3.5,0.785398163397448);
#91=FACE_OUTER_BOUND('',#117,.T.);
#92=PLANE('',#118);
#93=SURFACE_STYLE_FILL_AREA(#119);
#94=FACE_OUTER_BOUND('',#120,.T.);
#95=CYLINDRICAL_SURFACE('',#121,3.50000680692352);
#96=FACE_OUTER_BOUND('',#122,.T.);
#97=CYLINDRICAL_SURFACE('',#123,3.50000680692352);
#98=FACE_OUTER_BOUND('',#124,.T.);
#99=PLANE('',#125);
#100=FACE_OUTER_BOUND('',#126,.T.);
#101=PLANE('',#127);
#102=FILL_AREA_STYLE('',(#128));
#103=EDGE_LOOP('',(#129,#130,#131,#132));
#104=AXIS2_PLACEMENT_3D('',#133,#134,#135);
#105=EDGE_LOOP('',(#136,#137,#138,#139));
#106=AXIS2_PLACEMENT_3D('',#140,#141,#142);
#107=EDGE_LOOP('',(#143,#144,#145,#146));
#108=AXIS2_PLACEMENT_3D('',#147,#148,#149);
#109=EDGE_LOOP('',(#150,#151,#152,#153));
#110=AXIS2_PLACEMENT_3D('',#154,#155,#156);
#111=EDGE_LOOP('',(#157,#158,#159,#160));
#112=AXIS2_PLACEMENT_3D('',#161,#162,#163);
#113=EDGE_LOOP('',(#164,#165));
#114=AXIS2_PLACEMENT_3D('',#166,#167,#168);
#115=EDGE_LOOP('',(#169,#170,#171,#172));
#116=AXIS2_PLACEMENT_3D('',#173,#174,#175);
#117=EDGE_LOOP('',(#176,#177));
#118=AXIS2_PLACEMENT_3D('',#178,#179,#180);
#119=FILL_AREA_STYLE('',(#181));
#120=EDGE_LOOP('',(#182,#183,#184,#185));
#121=AXIS2_PLACEMENT_3D('',#186,#187,#188);
#122=EDGE_LOOP('',(#189,#190,#191,#192));
#123=AXIS2_PLACEMENT_3D('',#193,#194,#195);
#124=EDGE_LOOP('',(#196,#197));
#125=AXIS2_PLACEMENT_3D('',#198,#199,#200);
#126=EDGE_LOOP('',(#201,#202));
#127=AXIS2_PLACEMENT_3D('',#203,#204,#205);
#128=FILL_AREA_STYLE_COLOUR('',#206);
#129=ORIENTED_EDGE('',*,*,#207,.F.);
#130=ORIENTED_EDGE('',*,*,#208,.T.);
#131=ORIENTED_EDGE('',*,*,#209,.F.);
#132=ORIENTED_EDGE('',*,*,#210,.T.);
#133=CARTESIAN_POINT('',(0.0,0.0,0.0));
#134=DIRECTION('',(-0.0,-0.0,-1.0));
#135=DIRECTION('',(-1.0,0.0,0.0));
#136=ORIENTED_EDGE('',*,*,#211,.F.);
#137=ORIENTED_EDGE('',*,*,#208,.F.);
#138=ORIENTED_EDGE('',*,*,#212,.F.);
#139=ORIENTED_EDGE('',*,*,#213,.F.);
#140=CARTESIAN_POINT('',(0.0,0.0,-22.0));
#141=DIRECTION('',(0.0,0.0,-1.0));
#142=DIRECTION('',(1.0,0.0,0.0));
#143=ORIENTED_EDGE('',*,*,#214,.F.);
#144=ORIENTED_EDGE('',*,*,#215,.T.);
#145=ORIENTED_EDGE('',*,*,#216,.F.);
#146=ORIENTED_EDGE('',*,*,#217,.T.);
#147=CARTESIAN_POINT('',(0.0,0.0,-44.0));
#148=DIRECTION('',(-0.0,-0.0,1.0));
#149=DIRECTION('',(-1.0,0.0,0.0));
#150=ORIENTED_EDGE('',*,*,#214,.T.);
#151=ORIENTED_EDGE('',*,*,#218,.T.);
#152=ORIENTED_EDGE('',*,*,#216,.T.);
#153=ORIENTED_EDGE('',*,*,#213,.T.);
#154=CARTESIAN_POINT('',(0.0,0.0,-44.0));
#155=DIRECTION('',(-0.0,-0.0,1.0));
#156=DIRECTION('',(-1.0,0.0,0.0));
#157=ORIENTED_EDGE('',*,*,#211,.T.);
#158=ORIENTED_EDGE('',*,*,#215,.F.);
#159=ORIENTED_EDGE('',*,*,#212,.T.);
#160=ORIENTED_EDGE('',*,*,#219,.F.);
#161=CARTESIAN_POINT('',(0.0,0.0,-22.0));
#162=DIRECTION('',(0.0,0.0,-1.0));
#163=DIRECTION('',(1.0,0.0,0.0));
#164=ORIENTED_EDGE('',*,*,#217,.F.);
#165=ORIENTED_EDGE('',*,*,#218,.F.);
#166=CARTESIAN_POINT('',(0.0,0.0,-44.0));
#167=DIRECTION('',(0.0,0.0,-1.0));
#168=DIRECTION('',(1.0,0.0,0.0));
#169=ORIENTED_EDGE('',*,*,#207,.T.);
#170=ORIENTED_EDGE('',*,*,#220,.T.);
#171=ORIENTED_EDGE('',*,*,#209,.T.);
#172=ORIENTED_EDGE('',*,*,#219,.T.);
#173=CARTESIAN_POINT('',(0.0,0.0,0.0));
#174=DIRECTION('',(-0.0,-0.0,-1.0));
#175=DIRECTION('',(-1.0,0.0,0.0));
#176=ORIENTED_EDGE('',*,*,#210,.F.);
#177=ORIENTED_EDGE('',*,*,#220,.F.);
#178=CARTESIAN_POINT('',(0.0,0.0,0.0));
#179=DIRECTION('',(0.0,0.0,1.0));
#180=DIRECTION('',(-1.0,0.0,0.0));
#181=FILL_AREA_STYLE_COLOUR('',#221);
#182=ORIENTED_EDGE('',*,*,#222,.F.);
#183=ORIENTED_EDGE('',*,*,#223,.F.);
#184=ORIENTED_EDGE('',*,*,#224,.F.);
#185=ORIENTED_EDGE('',*,*,#225,.T.);
#186=CARTESIAN_POINT('',(0.0,0.0,-44.0));
#187=DIRECTION('',(0.0,0.0,-1.0));
#188=DIRECTION('',(-1.0,0.0,0.0));
#189=ORIENTED_EDGE('',*,*,#222,.T.);
#190=ORIENTED_EDGE('',*,*,#226,.T.);
#191=ORIENTED_EDGE('',*,*,#224,.T.);
#192=ORIENTED_EDGE('',*,*,#227,.F.);
#193=CARTESIAN_POINT('',(0.0,0.0,-44.0));
#194=DIRECTION('',(0.0,0.0,-1.0));
#195=DIRECTION('',(-1.0,0.0,0.0));
#196=ORIENTED_EDGE('',*,*,#225,.F.);
#197=ORIENTED_EDGE('',*,*,#226,.F.);
#198=CARTESIAN_POINT('',(0.0,0.0,-63.0));
#199=DIRECTION('',(0.0,0.0,-1.0));
#200=DIRECTION('',(1.0,0.0,0.0));
#201=ORIENTED_EDGE('',*,*,#223,.T.);
#202=ORIENTED_EDGE('',*,*,#227,.T.);
#203=CARTESIAN_POINT('',(0.0,0.0,-44.0));
#204=DIRECTION('',(0.0,0.0,-1.0));
#205=DIRECTION('',(1.0,0.0,0.0));
#206=COLOUR_RGB('',0.756862759590149,0.756862759590149,0.756862759590149);
#207=EDGE_CURVE('',#228,#229,#230,.T.);
#208=EDGE_CURVE('',#228,#231,#232,.T.);
#209=EDGE_CURVE('',#233,#231,#234,.T.);
#210=EDGE_CURVE('',#233,#229,#235,.T.);
#211=EDGE_CURVE('',#231,#236,#237,.T.);
#212=EDGE_CURVE('',#238,#228,#239,.T.);
#213=EDGE_CURVE('',#236,#238,#240,.T.);
#214=EDGE_CURVE('',#238,#241,#242,.T.);
#215=EDGE_CURVE('',#238,#236,#243,.T.);
#216=EDGE_CURVE('',#244,#236,#245,.T.);
#217=EDGE_CURVE('',#244,#241,#246,.T.);
#218=EDGE_CURVE('',#241,#244,#247,.T.);
#219=EDGE_CURVE('',#231,#228,#248,.T.);
#220=EDGE_CURVE('',#229,#233,#249,.T.);
#221=COLOUR_RGB('',0.0,1.0,0.0);
#222=EDGE_CURVE('',#250,#251,#252,.T.);
#223=EDGE_CURVE('',#253,#250,#254,.T.);
#224=EDGE_CURVE('',#255,#253,#256,.T.);
#225=EDGE_CURVE('',#255,#251,#257,.T.);
#226=EDGE_CURVE('',#251,#255,#258,.T.);
#227=EDGE_CURVE('',#250,#253,#259,.T.);
#228=VERTEX_POINT('',#260);
#229=VERTEX_POINT('',#261);
#230=LINE('',#262,#263);
#231=VERTEX_POINT('',#264);
#232=CIRCLE('',#265,4.0);
#233=VERTEX_POINT('',#266);
#234=LINE('',#267,#268);
#235=CIRCLE('',#269,3.5);
#236=VERTEX_POINT('',#270);
#237=LINE('',#271,#272);
#238=VERTEX_POINT('',#273);
#239=LINE('',#274,#275);
#240=CIRCLE('',#276,4.0);
#241=VERTEX_POINT('',#277);
#242=LINE('',#278,#279);
#243=CIRCLE('',#280,4.0);
#244=VERTEX_POINT('',#281);
#245=LINE('',#282,#283);
#246=CIRCLE('',#284,3.50000680692352);
#247=CIRCLE('',#285,3.50000680692352);
#248=CIRCLE('',#286,4.0);
#249=CIRCLE('',#287,3.5);
#250=VERTEX_POINT('',#288);
#251=VERTEX_POINT('',#289);
#252=LINE('',#290,#291);
#253=VERTEX_POINT('',#292);
#254=CIRCLE('',#293,3.50000680692352);
#255=VERTEX_POINT('',#294);
#256=LINE('',#295,#296);
#257=CIRCLE('',#297,3.50000680692352);
#258=CIRCLE('',#298,3.50000680692352);
#259=CIRCLE('',#299,3.50000680692352);
#260=CARTESIAN_POINT('',(-4.0,-4.89858719658941E-16,-0.5));
#261=CARTESIAN_POINT('',(-3.5,4.28626379701574E-16,0.0));
#262=CARTESIAN_POINT('',(-3.5,4.28626379701574E-16,0.0));
#263=VECTOR('',#300,1.0);
#264=CARTESIAN_POINT('',(4.0,4.89858719658941E-16,-0.5));
#265=AXIS2_PLACEMENT_3D('',#301,#302,#303);
#266=CARTESIAN_POINT('',(3.5,-4.28626379701574E-16,0.0));
#267=CARTESIAN_POINT('',(3.5,-4.28626379701573E-16,0.0));
#268=VECTOR('',#304,1.0);
#269=AXIS2_PLACEMENT_3D('',#305,#306,#307);
#270=CARTESIAN_POINT('',(4.0,-4.89858719658941E-16,-42.134));
#271=CARTESIAN_POINT('',(4.0,4.89858719658941E-16,-22.0));
#272=VECTOR('',#308,1.0);
#273=CARTESIAN_POINT('',(-4.0,-4.89858719658941E-16,-42.134));
#274=CARTESIAN_POINT('',(-4.0,-4.89858719658941E-16,-22.0));
#275=VECTOR('',#309,1.0);
#276=AXIS2_PLACEMENT_3D('',#310,#311,#312);
#277=CARTESIAN_POINT('',(-3.50000680692352,-4.28627213309284E-16,-44.0));
#278=CARTESIAN_POINT('',(-3.50000680692352,-4.28627213309284E-16,-44.0));
#279=VECTOR('',#313,1.0);
#280=AXIS2_PLACEMENT_3D('',#314,#315,#316);
#281=CARTESIAN_POINT('',(3.50000680692352,4.28627213309284E-16,-44.0));
#282=CARTESIAN_POINT('',(3.50000680692352,4.28627213309284E-16,-44.0));
#283=VECTOR('',#317,1.0);
#284=AXIS2_PLACEMENT_3D('',#318,#319,#320);
#285=AXIS2_PLACEMENT_3D('',#321,#322,#323);
#286=AXIS2_PLACEMENT_3D('',#324,#325,#326);
#287=AXIS2_PLACEMENT_3D('',#327,#328,#329);
#288=CARTESIAN_POINT('',(-3.50000680692352,-4.28627213309284E-16,-44.0));
#289=CARTESIAN_POINT('',(-3.50000680692352,-4.28627213309284E-16,-63.0));
#290=CARTESIAN_POINT('',(-3.50000680692352,-4.28627213309284E-16,-44.0));
#291=VECTOR('',#330,1.0);
#292=CARTESIAN_POINT('',(3.50000680692352,4.28627213309284E-16,-44.0));
#293=AXIS2_PLACEMENT_3D('',#331,#332,#333);
#294=CARTESIAN_POINT('',(3.50000680692352,4.28627213309284E-16,-63.0));
#295=CARTESIAN_POINT('',(3.50000680692352,4.28627213309284E-16,-44.0));
#296=VECTOR('',#334,1.0);
#297=AXIS2_PLACEMENT_3D('',#335,#336,#337);
#298=AXIS2_PLACEMENT_3D('',#338,#339,#340);
#299=AXIS2_PLACEMENT_3D('',#341,#342,#343);
#300=DIRECTION('',(0.707106781186547,-8.65956056235493E-17,0.707106781186548));
#301=CARTESIAN_POINT('',(0.0,0.0,-0.5));
#302=DIRECTION('',(0.0,0.0,1.0));
#303=DIRECTION('',(-1.0,0.0,0.0));
#304=DIRECTION('',(0.707106781186547,-8.65956056235493E-17,-0.707106781186548));
#305=CARTESIAN_POINT('',(0.0,0.0,0.0));
#306=DIRECTION('',(0.0,0.0,-1.0));
#307=DIRECTION('',(-1.0,0.0,0.0));
#308=DIRECTION('',(0.0,0.0,-1.0));
#309=DIRECTION('',(-0.0,-0.0,1.0));
#310=CARTESIAN_POINT('',(0.0,0.0,-42.134));
#311=DIRECTION('',(0.0,0.0,-1.0));
#312=DIRECTION('',(-1.0,0.0,0.0));
#313=DIRECTION('',(0.258819045102521,3.16961915143176E-17,-0.965925826289068));
#314=CARTESIAN_POINT('',(0.0,0.0,-42.134));
#315=DIRECTION('',(0.0,0.0,-1.0));
#316=DIRECTION('',(-1.0,0.0,0.0));
#317=DIRECTION('',(0.258819045102521,3.16961915143176E-17,0.965925826289068));
#318=CARTESIAN_POINT('',(0.0,0.0,-44.0));
#319=DIRECTION('',(0.0,0.0,1.0));
#320=DIRECTION('',(-1.0,0.0,0.0));
#321=CARTESIAN_POINT('',(0.0,0.0,-44.0));
#322=DIRECTION('',(0.0,0.0,1.0));
#323=DIRECTION('',(-1.0,0.0,0.0));
#324=CARTESIAN_POINT('',(0.0,0.0,-0.5));
#325=DIRECTION('',(0.0,0.0,1.0));
#326=DIRECTION('',(-1.0,0.0,0.0));
#327=CARTESIAN_POINT('',(0.0,0.0,0.0));
#328=DIRECTION('',(0.0,0.0,-1.0));
#329=DIRECTION('',(-1.0,0.0,0.0));
#330=DIRECTION('',(0.0,0.0,-1.0));
#331=CARTESIAN_POINT('',(0.0,0.0,-44.0));
#332=DIRECTION('',(0.0,0.0,1.0));
#333=DIRECTION('',(-1.0,0.0,0.0));
#334=DIRECTION('',(-0.0,-0.0,1.0));
#335=CARTESIAN_POINT('',(0.0,0.0,-63.0));
#336=DIRECTION('',(0.0,0.0,1.0));
#337=DIRECTION('',(-1.0,0.0,0.0));
#338=CARTESIAN_POINT('',(0.0,0.0,-63.0));
#339=DIRECTION('',(0.0,0.0,1.0));
#340=DIRECTION('',(-1.0,0.0,0.0));
#341=CARTESIAN_POINT('',(0.0,0.0,-44.0));
#342=DIRECTION('',(0.0,0.0,1.0));
#343=DIRECTION('',(-1.0,0.0,0.0));
ENDSEC;
END-ISO-10303-21;
