ISO-10303-21;
HEADER;
FILE_DESCRIPTION(('STEP AP214'),'1');
FILE_NAME('MV1010D25_LC.stp','2024-03-28T15:31:14',(' '),(' '),'Spatial InterOp 3D',' ',' ');
FILE_SCHEMA(('AUTOMOTIVE_DESIGN { 1 0 10303 214 1 1 1 1 }'));
ENDSEC;
DATA;
#1=MECHANICAL_DESIGN_GEOMETRIC_PRESENTATION_REPRESENTATION(' ',(#12,#13,#14),#8);
#2=PRODUCT_DEFINITION_CONTEXT('',#15,'design');
#3=APPLICATION_PROTOCOL_DEFINITION('INTERNATIONAL STANDARD','automotive_design',1994,#15);
#4=PRODUCT_CATEGORY_RELATIONSHIP('NONE','NONE',#16,#17);
#5=SHAPE_DEFINITION_REPRESENTATION(#18,#19);
#6=SHAPE_DEFINITION_REPRESENTATION(#18,#20);
#7=SHAPE_DEFINITION_REPRESENTATION(#18,#21);
#8= (GEOMETRIC_REPRESENTATION_CONTEXT(3)GLOBAL_UNCERTAINTY_ASSIGNED_CONTEXT((#24))GLOBAL_UNIT_ASSIGNED_CONTEXT((#26,#27,#28))REPRESENTATION_CONTEXT('NONE','WORKSPACE'));
#12=STYLED_ITEM('',(#30),#31);
#13=STYLED_ITEM('',(#32),#33);
#14=STYLED_ITEM('',(#34),#35);
#15=APPLICATION_CONTEXT(' ');
#16=PRODUCT_CATEGORY('part','NONE');
#17=PRODUCT_RELATED_PRODUCT_CATEGORY('detail',' ',(#36));
#18=PRODUCT_DEFINITION_SHAPE('NONE','NONE',#37);
#19=ADVANCED_BREP_SHAPE_REPRESENTATION('1',(#31,#38),#8);
#20=ADVANCED_BREP_SHAPE_REPRESENTATION('2',(#33,#39),#8);
#21=ADVANCED_BREP_SHAPE_REPRESENTATION('3',(#35,#40),#8);
#24=UNCERTAINTY_MEASURE_WITH_UNIT(LENGTH_MEASURE(1.0E-06),#26,'','');
#26= (CONVERSION_BASED_UNIT('MILLIMETRE',#43)LENGTH_UNIT()NAMED_UNIT(#46));
#27= (NAMED_UNIT(#48)PLANE_ANGLE_UNIT()SI_UNIT($,.RADIAN.));
#28= (NAMED_UNIT(#48)SOLID_ANGLE_UNIT()SI_UNIT($,.STERADIAN.));
#30=PRESENTATION_STYLE_ASSIGNMENT((#54));
#31=MANIFOLD_SOLID_BREP('1',#55);
#32=PRESENTATION_STYLE_ASSIGNMENT((#56));
#33=MANIFOLD_SOLID_BREP('2',#57);
#34=PRESENTATION_STYLE_ASSIGNMENT((#58));
#35=MANIFOLD_SOLID_BREP('3',#59);
#36=PRODUCT('1','','PART--DESC',(#60));
#37=PRODUCT_DEFINITION('','NONE',#61,#2);
#38=AXIS2_PLACEMENT_3D('',#62,#63,#64);
#39=AXIS2_PLACEMENT_3D('',#65,#66,#67);
#40=AXIS2_PLACEMENT_3D('',#68,#69,#70);
#43=LENGTH_MEASURE_WITH_UNIT(LENGTH_MEASURE(1.0),#71);
#46=DIMENSIONAL_EXPONENTS(1.0,0.0,0.0,0.0,0.0,0.0,0.0);
#48=DIMENSIONAL_EXPONENTS(0.0,0.0,0.0,0.0,0.0,0.0,0.0);
#54=SURFACE_STYLE_USAGE(.BOTH.,#72);
#55=CLOSED_SHELL('',(#73,#74,#75,#76,#77,#78));
#56=SURFACE_STYLE_USAGE(.BOTH.,#79);
#57=CLOSED_SHELL('',(#80,#81,#82,#83));
#58=SURFACE_STYLE_USAGE(.BOTH.,#84);
#59=CLOSED_SHELL('',(#85,#86,#87,#88,#89,#90));
#60=PRODUCT_CONTEXT('',#15,'mechanical');
#61=PRODUCT_DEFINITION_FORMATION_WITH_SPECIFIED_SOURCE(' ','NONE',#36,.NOT_KNOWN.);
#62=CARTESIAN_POINT('',(0.0,0.0,0.0));
#63=DIRECTION('',(0.0,0.0,1.0));
#64=DIRECTION('',(1.0,0.0,0.0));
#65=CARTESIAN_POINT('',(0.0,0.0,0.0));
#66=DIRECTION('',(0.0,0.0,1.0));
#67=DIRECTION('',(1.0,0.0,0.0));
#68=CARTESIAN_POINT('',(0.0,0.0,0.0));
#69=DIRECTION('',(0.0,0.0,1.0));
#70=DIRECTION('',(1.0,0.0,0.0));
#71= (NAMED_UNIT(#46)LENGTH_UNIT()SI_UNIT(.MILLI.,.METRE.));
#72=SURFACE_SIDE_STYLE('',(#92));
#73=ADVANCED_FACE('',(#93),#94,.T.);
#74=ADVANCED_FACE('',(#95),#96,.T.);
#75=ADVANCED_FACE('',(#97),#98,.T.);
#76=ADVANCED_FACE('',(#99),#100,.T.);
#77=ADVANCED_FACE('',(#101),#102,.T.);
#78=ADVANCED_FACE('',(#103),#104,.T.);
#79=SURFACE_SIDE_STYLE('',(#105));
#80=ADVANCED_FACE('',(#106),#107,.T.);
#81=ADVANCED_FACE('',(#108),#109,.T.);
#82=ADVANCED_FACE('',(#110),#111,.T.);
#83=ADVANCED_FACE('',(#112),#113,.F.);
#84=SURFACE_SIDE_STYLE('',(#114));
#85=ADVANCED_FACE('',(#115),#116,.T.);
#86=ADVANCED_FACE('',(#117),#118,.T.);
#87=ADVANCED_FACE('',(#119),#120,.T.);
#88=ADVANCED_FACE('',(#121),#122,.T.);
#89=ADVANCED_FACE('',(#123),#124,.T.);
#90=ADVANCED_FACE('',(#125),#126,.F.);
#92=SURFACE_STYLE_FILL_AREA(#127);
#93=FACE_OUTER_BOUND('',#128,.T.);
#94=CYLINDRICAL_SURFACE('',#129,5.0);
#95=FACE_OUTER_BOUND('',#130,.T.);
#96=CONICAL_SURFACE('',#131,4.5,0.785398163397448);
#97=FACE_OUTER_BOUND('',#132,.T.);
#98=CONICAL_SURFACE('',#133,4.5,0.785398163397448);
#99=FACE_OUTER_BOUND('',#134,.T.);
#100=CYLINDRICAL_SURFACE('',#135,5.0);
#101=FACE_OUTER_BOUND('',#136,.T.);
#102=PLANE('',#137);
#103=FACE_OUTER_BOUND('',#138,.T.);
#104=PLANE('',#139);
#105=SURFACE_STYLE_FILL_AREA(#140);
#106=FACE_OUTER_BOUND('',#141,.T.);
#107=CYLINDRICAL_SURFACE('',#142,5.0);
#108=FACE_OUTER_BOUND('',#143,.T.);
#109=CYLINDRICAL_SURFACE('',#144,5.0);
#110=FACE_OUTER_BOUND('',#145,.T.);
#111=PLANE('',#146);
#112=FACE_OUTER_BOUND('',#147,.T.);
#113=PLANE('',#148);
#114=SURFACE_STYLE_FILL_AREA(#149);
#115=FACE_OUTER_BOUND('',#150,.T.);
#116=CYLINDRICAL_SURFACE('',#151,5.0);
#117=FACE_OUTER_BOUND('',#152,.T.);
#118=TOROIDAL_SURFACE('',#153,4.4,0.6);
#119=FACE_OUTER_BOUND('',#154,.T.);
#120=TOROIDAL_SURFACE('',#155,4.4,0.6);
#121=FACE_OUTER_BOUND('',#156,.T.);
#122=CYLINDRICAL_SURFACE('',#157,5.0);
#123=FACE_OUTER_BOUND('',#158,.T.);
#124=PLANE('',#159);
#125=FACE_OUTER_BOUND('',#160,.T.);
#126=PLANE('',#161);
#127=FILL_AREA_STYLE('',(#162));
#128=EDGE_LOOP('',(#163,#164,#165,#166));
#129=AXIS2_PLACEMENT_3D('',#167,#168,#169);
#130=EDGE_LOOP('',(#170,#171,#172,#173));
#131=AXIS2_PLACEMENT_3D('',#174,#175,#176);
#132=EDGE_LOOP('',(#177,#178,#179,#180));
#133=AXIS2_PLACEMENT_3D('',#181,#182,#183);
#134=EDGE_LOOP('',(#184,#185,#186,#187));
#135=AXIS2_PLACEMENT_3D('',#188,#189,#190);
#136=EDGE_LOOP('',(#191,#192));
#137=AXIS2_PLACEMENT_3D('',#193,#194,#195);
#138=EDGE_LOOP('',(#196,#197));
#139=AXIS2_PLACEMENT_3D('',#198,#199,#200);
#140=FILL_AREA_STYLE('',(#201));
#141=EDGE_LOOP('',(#202,#203,#204,#205));
#142=AXIS2_PLACEMENT_3D('',#206,#207,#208);
#143=EDGE_LOOP('',(#209,#210,#211,#212));
#144=AXIS2_PLACEMENT_3D('',#213,#214,#215);
#145=EDGE_LOOP('',(#216,#217));
#146=AXIS2_PLACEMENT_3D('',#218,#219,#220);
#147=EDGE_LOOP('',(#221,#222));
#148=AXIS2_PLACEMENT_3D('',#223,#224,#225);
#149=FILL_AREA_STYLE('',(#226));
#150=EDGE_LOOP('',(#227,#228,#229,#230));
#151=AXIS2_PLACEMENT_3D('',#231,#232,#233);
#152=EDGE_LOOP('',(#234,#235,#236,#237));
#153=AXIS2_PLACEMENT_3D('',#238,#239,#240);
#154=EDGE_LOOP('',(#241,#242,#243,#244));
#155=AXIS2_PLACEMENT_3D('',#245,#246,#247);
#156=EDGE_LOOP('',(#248,#249,#250,#251));
#157=AXIS2_PLACEMENT_3D('',#252,#253,#254);
#158=EDGE_LOOP('',(#255,#256));
#159=AXIS2_PLACEMENT_3D('',#257,#258,#259);
#160=EDGE_LOOP('',(#260,#261));
#161=AXIS2_PLACEMENT_3D('',#262,#263,#264);
#162=FILL_AREA_STYLE_COLOUR('',#265);
#163=ORIENTED_EDGE('',*,*,#266,.F.);
#164=ORIENTED_EDGE('',*,*,#267,.F.);
#165=ORIENTED_EDGE('',*,*,#268,.F.);
#166=ORIENTED_EDGE('',*,*,#269,.F.);
#167=CARTESIAN_POINT('',(0.0,0.0,-23.5));
#168=DIRECTION('',(0.0,0.0,-1.0));
#169=DIRECTION('',(1.0,0.0,0.0));
#170=ORIENTED_EDGE('',*,*,#270,.F.);
#171=ORIENTED_EDGE('',*,*,#267,.T.);
#172=ORIENTED_EDGE('',*,*,#271,.F.);
#173=ORIENTED_EDGE('',*,*,#272,.T.);
#174=CARTESIAN_POINT('',(0.0,0.0,0.0));
#175=DIRECTION('',(-0.0,-0.0,-1.0));
#176=DIRECTION('',(-1.0,0.0,0.0));
#177=ORIENTED_EDGE('',*,*,#270,.T.);
#178=ORIENTED_EDGE('',*,*,#273,.T.);
#179=ORIENTED_EDGE('',*,*,#271,.T.);
#180=ORIENTED_EDGE('',*,*,#274,.T.);
#181=CARTESIAN_POINT('',(0.0,0.0,0.0));
#182=DIRECTION('',(-0.0,-0.0,-1.0));
#183=DIRECTION('',(-1.0,0.0,0.0));
#184=ORIENTED_EDGE('',*,*,#266,.T.);
#185=ORIENTED_EDGE('',*,*,#275,.F.);
#186=ORIENTED_EDGE('',*,*,#268,.T.);
#187=ORIENTED_EDGE('',*,*,#274,.F.);
#188=CARTESIAN_POINT('',(0.0,0.0,-23.5));
#189=DIRECTION('',(0.0,0.0,-1.0));
#190=DIRECTION('',(1.0,0.0,0.0));
#191=ORIENTED_EDGE('',*,*,#272,.F.);
#192=ORIENTED_EDGE('',*,*,#273,.F.);
#193=CARTESIAN_POINT('',(0.0,0.0,0.0));
#194=DIRECTION('',(0.0,0.0,1.0));
#195=DIRECTION('',(-1.0,0.0,0.0));
#196=ORIENTED_EDGE('',*,*,#269,.T.);
#197=ORIENTED_EDGE('',*,*,#275,.T.);
#198=CARTESIAN_POINT('',(0.0,0.0,-47.0));
#199=DIRECTION('',(0.0,0.0,-1.0));
#200=DIRECTION('',(1.0,0.0,0.0));
#201=FILL_AREA_STYLE_COLOUR('',#276);
#202=ORIENTED_EDGE('',*,*,#277,.F.);
#203=ORIENTED_EDGE('',*,*,#278,.T.);
#204=ORIENTED_EDGE('',*,*,#279,.F.);
#205=ORIENTED_EDGE('',*,*,#280,.T.);
#206=CARTESIAN_POINT('',(0.0,0.0,-47.0));
#207=DIRECTION('',(0.0,0.0,-1.0));
#208=DIRECTION('',(1.0,0.0,0.0));
#209=ORIENTED_EDGE('',*,*,#277,.T.);
#210=ORIENTED_EDGE('',*,*,#281,.T.);
#211=ORIENTED_EDGE('',*,*,#279,.T.);
#212=ORIENTED_EDGE('',*,*,#282,.T.);
#213=CARTESIAN_POINT('',(0.0,0.0,-47.0));
#214=DIRECTION('',(0.0,0.0,-1.0));
#215=DIRECTION('',(1.0,0.0,0.0));
#216=ORIENTED_EDGE('',*,*,#281,.F.);
#217=ORIENTED_EDGE('',*,*,#280,.F.);
#218=CARTESIAN_POINT('',(0.0,0.0,-62.0));
#219=DIRECTION('',(0.0,0.0,-1.0));
#220=DIRECTION('',(1.0,0.0,0.0));
#221=ORIENTED_EDGE('',*,*,#278,.F.);
#222=ORIENTED_EDGE('',*,*,#282,.F.);
#223=CARTESIAN_POINT('',(0.0,0.0,-47.0));
#224=DIRECTION('',(0.0,0.0,-1.0));
#225=DIRECTION('',(1.0,0.0,0.0));
#226=FILL_AREA_STYLE_COLOUR('',#283);
#227=ORIENTED_EDGE('',*,*,#284,.F.);
#228=ORIENTED_EDGE('',*,*,#285,.F.);
#229=ORIENTED_EDGE('',*,*,#286,.F.);
#230=ORIENTED_EDGE('',*,*,#287,.F.);
#231=CARTESIAN_POINT('',(0.0,0.0,-62.0));
#232=DIRECTION('',(0.0,0.0,-1.0));
#233=DIRECTION('',(1.0,0.0,0.0));
#234=ORIENTED_EDGE('',*,*,#288,.F.);
#235=ORIENTED_EDGE('',*,*,#289,.T.);
#236=ORIENTED_EDGE('',*,*,#290,.F.);
#237=ORIENTED_EDGE('',*,*,#287,.T.);
#238=CARTESIAN_POINT('',(0.0,0.0,-71.4));
#239=DIRECTION('',(0.0,0.0,1.0));
#240=DIRECTION('',(-1.0,0.0,0.0));
#241=ORIENTED_EDGE('',*,*,#288,.T.);
#242=ORIENTED_EDGE('',*,*,#291,.T.);
#243=ORIENTED_EDGE('',*,*,#290,.T.);
#244=ORIENTED_EDGE('',*,*,#292,.T.);
#245=CARTESIAN_POINT('',(0.0,0.0,-71.4));
#246=DIRECTION('',(0.0,0.0,1.0));
#247=DIRECTION('',(-1.0,0.0,0.0));
#248=ORIENTED_EDGE('',*,*,#284,.T.);
#249=ORIENTED_EDGE('',*,*,#291,.F.);
#250=ORIENTED_EDGE('',*,*,#286,.T.);
#251=ORIENTED_EDGE('',*,*,#293,.F.);
#252=CARTESIAN_POINT('',(0.0,0.0,-62.0));
#253=DIRECTION('',(0.0,0.0,-1.0));
#254=DIRECTION('',(1.0,0.0,0.0));
#255=ORIENTED_EDGE('',*,*,#292,.F.);
#256=ORIENTED_EDGE('',*,*,#289,.F.);
#257=CARTESIAN_POINT('',(0.0,0.0,-72.0));
#258=DIRECTION('',(0.0,0.0,-1.0));
#259=DIRECTION('',(1.0,0.0,0.0));
#260=ORIENTED_EDGE('',*,*,#293,.T.);
#261=ORIENTED_EDGE('',*,*,#285,.T.);
#262=CARTESIAN_POINT('',(0.0,0.0,-62.0));
#263=DIRECTION('',(0.0,0.0,-1.0));
#264=DIRECTION('',(1.0,0.0,0.0));
#265=COLOUR_RGB('',0.756862759590149,0.756862759590149,0.756862759590149);
#266=EDGE_CURVE('',#294,#295,#296,.T.);
#267=EDGE_CURVE('',#297,#294,#298,.T.);
#268=EDGE_CURVE('',#299,#297,#300,.T.);
#269=EDGE_CURVE('',#295,#299,#301,.T.);
#270=EDGE_CURVE('',#297,#302,#303,.T.);
#271=EDGE_CURVE('',#304,#294,#305,.T.);
#272=EDGE_CURVE('',#304,#302,#306,.T.);
#273=EDGE_CURVE('',#302,#304,#307,.T.);
#274=EDGE_CURVE('',#294,#297,#308,.T.);
#275=EDGE_CURVE('',#299,#295,#309,.T.);
#276=COLOUR_RGB('',0.443137258291245,0.443137258291245,0.776470601558685);
#277=EDGE_CURVE('',#310,#311,#312,.T.);
#278=EDGE_CURVE('',#310,#313,#314,.T.);
#279=EDGE_CURVE('',#315,#313,#316,.T.);
#280=EDGE_CURVE('',#315,#311,#317,.T.);
#281=EDGE_CURVE('',#311,#315,#318,.T.);
#282=EDGE_CURVE('',#313,#310,#319,.T.);
#283=COLOUR_RGB('',0.0,1.0,0.0);
#284=EDGE_CURVE('',#320,#321,#322,.T.);
#285=EDGE_CURVE('',#323,#320,#324,.T.);
#286=EDGE_CURVE('',#325,#323,#326,.T.);
#287=EDGE_CURVE('',#321,#325,#327,.T.);
#288=EDGE_CURVE('',#328,#325,#329,.T.);
#289=EDGE_CURVE('',#328,#330,#331,.T.);
#290=EDGE_CURVE('',#321,#330,#332,.T.);
#291=EDGE_CURVE('',#325,#321,#333,.T.);
#292=EDGE_CURVE('',#330,#328,#334,.T.);
#293=EDGE_CURVE('',#320,#323,#335,.T.);
#294=VERTEX_POINT('',#336);
#295=VERTEX_POINT('',#337);
#296=LINE('',#338,#339);
#297=VERTEX_POINT('',#340);
#298=CIRCLE('',#341,5.0);
#299=VERTEX_POINT('',#342);
#300=LINE('',#343,#344);
#301=CIRCLE('',#345,5.0);
#302=VERTEX_POINT('',#346);
#303=LINE('',#347,#348);
#304=VERTEX_POINT('',#349);
#305=LINE('',#350,#351);
#306=CIRCLE('',#352,4.5);
#307=CIRCLE('',#353,4.5);
#308=CIRCLE('',#354,5.0);
#309=CIRCLE('',#355,5.0);
#310=VERTEX_POINT('',#356);
#311=VERTEX_POINT('',#357);
#312=LINE('',#358,#359);
#313=VERTEX_POINT('',#360);
#314=CIRCLE('',#361,5.0);
#315=VERTEX_POINT('',#362);
#316=LINE('',#363,#364);
#317=CIRCLE('',#365,5.0);
#318=CIRCLE('',#366,5.0);
#319=CIRCLE('',#367,5.0);
#320=VERTEX_POINT('',#368);
#321=VERTEX_POINT('',#369);
#322=LINE('',#370,#371);
#323=VERTEX_POINT('',#372);
#324=CIRCLE('',#373,5.0);
#325=VERTEX_POINT('',#374);
#326=LINE('',#375,#376);
#327=CIRCLE('',#377,5.0);
#328=VERTEX_POINT('',#378);
#329=CIRCLE('',#379,0.6);
#330=VERTEX_POINT('',#380);
#331=CIRCLE('',#381,4.4);
#332=CIRCLE('',#382,0.6);
#333=CIRCLE('',#383,5.0);
#334=CIRCLE('',#384,4.4);
#335=CIRCLE('',#385,5.0);
#336=CARTESIAN_POINT('',(5.0,6.12323399573676E-16,-0.5));
#337=CARTESIAN_POINT('',(5.0,0.0,-47.0));
#338=CARTESIAN_POINT('',(5.0,6.12323399573677E-16,-23.5));
#339=VECTOR('',#386,1.0);
#340=CARTESIAN_POINT('',(-5.0,6.12323399573677E-16,-0.5));
#341=AXIS2_PLACEMENT_3D('',#387,#388,#389);
#342=CARTESIAN_POINT('',(-5.0,-6.12323399573677E-16,-47.0));
#343=CARTESIAN_POINT('',(-5.0,-6.12323399573677E-16,-23.5));
#344=VECTOR('',#390,1.0);
#345=AXIS2_PLACEMENT_3D('',#391,#392,#393);
#346=CARTESIAN_POINT('',(-4.5,5.51091059616309E-16,0.0));
#347=CARTESIAN_POINT('',(-4.5,5.51091059616309E-16,0.0));
#348=VECTOR('',#394,1.0);
#349=CARTESIAN_POINT('',(4.5,-5.51091059616309E-16,0.0));
#350=CARTESIAN_POINT('',(4.5,-5.51091059616309E-16,0.0));
#351=VECTOR('',#395,1.0);
#352=AXIS2_PLACEMENT_3D('',#396,#397,#398);
#353=AXIS2_PLACEMENT_3D('',#399,#400,#401);
#354=AXIS2_PLACEMENT_3D('',#402,#403,#404);
#355=AXIS2_PLACEMENT_3D('',#405,#406,#407);
#356=CARTESIAN_POINT('',(5.0,0.0,-47.0));
#357=CARTESIAN_POINT('',(5.0,0.0,-62.0));
#358=CARTESIAN_POINT('',(5.0,6.12323399573677E-16,-47.0));
#359=VECTOR('',#408,1.0);
#360=CARTESIAN_POINT('',(-5.0,-6.12323399573677E-16,-47.0));
#361=AXIS2_PLACEMENT_3D('',#409,#410,#411);
#362=CARTESIAN_POINT('',(-5.0,-6.12323399573677E-16,-62.0));
#363=CARTESIAN_POINT('',(-5.0,-6.12323399573677E-16,-47.0));
#364=VECTOR('',#412,1.0);
#365=AXIS2_PLACEMENT_3D('',#413,#414,#415);
#366=AXIS2_PLACEMENT_3D('',#416,#417,#418);
#367=AXIS2_PLACEMENT_3D('',#419,#420,#421);
#368=CARTESIAN_POINT('',(5.0,0.0,-62.0));
#369=CARTESIAN_POINT('',(5.0,-1.22464679914735E-15,-71.4));
#370=CARTESIAN_POINT('',(5.0,6.12323399573677E-16,-62.0));
#371=VECTOR('',#422,1.0);
#372=CARTESIAN_POINT('',(-5.0,-6.12323399573677E-16,-62.0));
#373=AXIS2_PLACEMENT_3D('',#423,#424,#425);
#374=CARTESIAN_POINT('',(-5.0,6.12323399573677E-16,-71.4));
#375=CARTESIAN_POINT('',(-5.0,-6.12323399573677E-16,-62.0));
#376=VECTOR('',#426,1.0);
#377=AXIS2_PLACEMENT_3D('',#427,#428,#429);
#378=CARTESIAN_POINT('',(-4.4,5.38844591624835E-16,-72.0));
#379=AXIS2_PLACEMENT_3D('',#430,#431,#432);
#380=CARTESIAN_POINT('',(4.4,0.0,-72.0));
#381=AXIS2_PLACEMENT_3D('',#433,#434,#435);
#382=AXIS2_PLACEMENT_3D('',#436,#437,#438);
#383=AXIS2_PLACEMENT_3D('',#439,#440,#441);
#384=AXIS2_PLACEMENT_3D('',#442,#443,#444);
#385=AXIS2_PLACEMENT_3D('',#445,#446,#447);
#386=DIRECTION('',(0.0,0.0,-1.0));
#387=CARTESIAN_POINT('',(0.0,0.0,-0.5));
#388=DIRECTION('',(0.0,0.0,1.0));
#389=DIRECTION('',(-1.0,0.0,0.0));
#390=DIRECTION('',(-0.0,-0.0,1.0));
#391=CARTESIAN_POINT('',(0.0,0.0,-47.0));
#392=DIRECTION('',(0.0,0.0,-1.0));
#393=DIRECTION('',(1.0,0.0,0.0));
#394=DIRECTION('',(0.707106781186548,-8.65956056235493E-17,0.707106781186548));
#395=DIRECTION('',(0.707106781186548,-8.65956056235493E-17,-0.707106781186548));
#396=CARTESIAN_POINT('',(0.0,0.0,0.0));
#397=DIRECTION('',(0.0,0.0,-1.0));
#398=DIRECTION('',(-1.0,0.0,0.0));
#399=CARTESIAN_POINT('',(0.0,0.0,0.0));
#400=DIRECTION('',(0.0,0.0,-1.0));
#401=DIRECTION('',(-1.0,0.0,0.0));
#402=CARTESIAN_POINT('',(0.0,0.0,-0.5));
#403=DIRECTION('',(0.0,0.0,1.0));
#404=DIRECTION('',(-1.0,0.0,0.0));
#405=CARTESIAN_POINT('',(0.0,0.0,-47.0));
#406=DIRECTION('',(0.0,0.0,-1.0));
#407=DIRECTION('',(1.0,0.0,0.0));
#408=DIRECTION('',(0.0,0.0,-1.0));
#409=CARTESIAN_POINT('',(0.0,0.0,-47.0));
#410=DIRECTION('',(0.0,0.0,-1.0));
#411=DIRECTION('',(1.0,0.0,0.0));
#412=DIRECTION('',(-0.0,-0.0,1.0));
#413=CARTESIAN_POINT('',(0.0,0.0,-62.0));
#414=DIRECTION('',(-0.0,0.0,1.0));
#415=DIRECTION('',(1.0,0.0,0.0));
#416=CARTESIAN_POINT('',(0.0,0.0,-62.0));
#417=DIRECTION('',(-0.0,0.0,1.0));
#418=DIRECTION('',(1.0,0.0,0.0));
#419=CARTESIAN_POINT('',(0.0,0.0,-47.0));
#420=DIRECTION('',(0.0,0.0,-1.0));
#421=DIRECTION('',(1.0,0.0,0.0));
#422=DIRECTION('',(0.0,0.0,-1.0));
#423=CARTESIAN_POINT('',(0.0,0.0,-62.0));
#424=DIRECTION('',(-0.0,0.0,1.0));
#425=DIRECTION('',(1.0,0.0,0.0));
#426=DIRECTION('',(-0.0,-0.0,1.0));
#427=CARTESIAN_POINT('',(0.0,0.0,-71.4));
#428=DIRECTION('',(0.0,0.0,-1.0));
#429=DIRECTION('',(-1.0,1.22464679914735E-16,0.0));
#430=CARTESIAN_POINT('',(-4.4,5.38844591624835E-16,-71.4));
#431=DIRECTION('',(1.22464679914735E-16,1.0,-0.0));
#432=DIRECTION('',(-1.0,1.22464679914735E-16,0.0));
#433=CARTESIAN_POINT('',(0.0,0.0,-72.0));
#434=DIRECTION('',(0.0,0.0,1.0));
#435=DIRECTION('',(-1.0,1.22464679914735E-16,-0.0));
#436=CARTESIAN_POINT('',(4.4,-5.38844591624835E-16,-71.4));
#437=DIRECTION('',(1.22464679914735E-16,1.0,0.0));
#438=DIRECTION('',(1.0,-1.22464679914735E-16,0.0));
#439=CARTESIAN_POINT('',(0.0,0.0,-71.4));
#440=DIRECTION('',(0.0,0.0,-1.0));
#441=DIRECTION('',(-1.0,1.22464679914735E-16,0.0));
#442=CARTESIAN_POINT('',(0.0,0.0,-72.0));
#443=DIRECTION('',(0.0,0.0,1.0));
#444=DIRECTION('',(-1.0,1.22464679914735E-16,-0.0));
#445=CARTESIAN_POINT('',(0.0,0.0,-62.0));
#446=DIRECTION('',(-0.0,0.0,1.0));
#447=DIRECTION('',(1.0,0.0,0.0));
ENDSEC;
END-ISO-10303-21;
