ISO-10303-21;
HEADER;
FILE_DESCRIPTION(('STEP AP214'),'1');
FILE_NAME('RG06003B1_DC.stp','2024-05-21T14:18:23',(' '),(' '),'Spatial InterOp 3D',' ',' ');
FILE_SCHEMA(('AUTOMOTIVE_DESIGN { 1 0 10303 214 1 1 1 1 }'));
ENDSEC;
DATA;
#1=MECHANICAL_DESIGN_GEOMETRIC_PRESENTATION_REPRESENTATION(' ',(#11,#12),#7);
#2=PRODUCT_DEFINITION_CONTEXT('',#13,'design');
#3=APPLICATION_PROTOCOL_DEFINITION('INTERNATIONAL STANDARD','automotive_design',1994,#13);
#4=PRODUCT_CATEGORY_RELATIONSHIP('NONE','NONE',#14,#15);
#5=SHAPE_DEFINITION_REPRESENTATION(#16,#17);
#6=SHAPE_DEFINITION_REPRESENTATION(#16,#18);
#7= (GEOMETRIC_REPRESENTATION_CONTEXT(3)GLOBAL_UNCERTAINTY_ASSIGNED_CONTEXT((#21))GLOBAL_UNIT_ASSIGNED_CONTEXT((#23,#24,#25))REPRESENTATION_CONTEXT('NONE','WORKSPACE'));
#11=STYLED_ITEM('',(#27),#28);
#12=STYLED_ITEM('',(#29),#30);
#13=APPLICATION_CONTEXT(' ');
#14=PRODUCT_CATEGORY('part','NONE');
#15=PRODUCT_RELATED_PRODUCT_CATEGORY('detail',' ',(#31));
#16=PRODUCT_DEFINITION_SHAPE('NONE','NONE',#32);
#17=ADVANCED_BREP_SHAPE_REPRESENTATION('1',(#28,#33),#7);
#18=ADVANCED_BREP_SHAPE_REPRESENTATION('2',(#30,#34),#7);
#21=UNCERTAINTY_MEASURE_WITH_UNIT(LENGTH_MEASURE(1.0E-06),#23,'','');
#23= (CONVERSION_BASED_UNIT('MILLIMETRE',#37)LENGTH_UNIT()NAMED_UNIT(#40));
#24= (NAMED_UNIT(#42)PLANE_ANGLE_UNIT()SI_UNIT($,.RADIAN.));
#25= (NAMED_UNIT(#42)SOLID_ANGLE_UNIT()SI_UNIT($,.STERADIAN.));
#27=PRESENTATION_STYLE_ASSIGNMENT((#48));
#28=MANIFOLD_SOLID_BREP('1',#49);
#29=PRESENTATION_STYLE_ASSIGNMENT((#50));
#30=MANIFOLD_SOLID_BREP('2',#51);
#31=PRODUCT('1','','PART--DESC',(#52));
#32=PRODUCT_DEFINITION('','NONE',#53,#2);
#33=AXIS2_PLACEMENT_3D('',#54,#55,#56);
#34=AXIS2_PLACEMENT_3D('',#57,#58,#59);
#37=LENGTH_MEASURE_WITH_UNIT(LENGTH_MEASURE(1.0),#60);
#40=DIMENSIONAL_EXPONENTS(1.0,0.0,0.0,0.0,0.0,0.0,0.0);
#42=DIMENSIONAL_EXPONENTS(0.0,0.0,0.0,0.0,0.0,0.0,0.0);
#48=SURFACE_STYLE_USAGE(.BOTH.,#61);
#49=CLOSED_SHELL('',(#62,#63,#64,#65,#66,#67,#68,#69));
#50=SURFACE_STYLE_USAGE(.BOTH.,#70);
#51=CLOSED_SHELL('',(#71,#72,#73,#74,#75,#76));
#52=PRODUCT_CONTEXT('',#13,'mechanical');
#53=PRODUCT_DEFINITION_FORMATION_WITH_SPECIFIED_SOURCE(' ','NONE',#31,.NOT_KNOWN.);
#54=CARTESIAN_POINT('',(0.0,0.0,0.0));
#55=DIRECTION('',(0.0,0.0,1.0));
#56=DIRECTION('',(1.0,0.0,0.0));
#57=CARTESIAN_POINT('',(0.0,0.0,0.0));
#58=DIRECTION('',(0.0,0.0,1.0));
#59=DIRECTION('',(1.0,0.0,0.0));
#60= (NAMED_UNIT(#40)LENGTH_UNIT()SI_UNIT(.MILLI.,.METRE.));
#61=SURFACE_SIDE_STYLE('',(#78));
#62=ADVANCED_FACE('',(#79),#80,.T.);
#63=ADVANCED_FACE('',(#81),#82,.T.);
#64=ADVANCED_FACE('',(#83),#84,.T.);
#65=ADVANCED_FACE('',(#85),#86,.T.);
#66=ADVANCED_FACE('',(#87),#88,.T.);
#67=ADVANCED_FACE('',(#89),#90,.T.);
#68=ADVANCED_FACE('',(#91),#92,.T.);
#69=ADVANCED_FACE('',(#93),#94,.T.);
#70=SURFACE_SIDE_STYLE('',(#95));
#71=ADVANCED_FACE('',(#96),#97,.T.);
#72=ADVANCED_FACE('',(#98),#99,.T.);
#73=ADVANCED_FACE('',(#100),#101,.T.);
#74=ADVANCED_FACE('',(#102),#103,.T.);
#75=ADVANCED_FACE('',(#104),#105,.T.);
#76=ADVANCED_FACE('',(#106),#107,.F.);
#78=SURFACE_STYLE_FILL_AREA(#108);
#79=FACE_OUTER_BOUND('',#109,.T.);
#80=CONICAL_SURFACE('',#110,2.6,0.785398163397448);
#81=FACE_OUTER_BOUND('',#111,.T.);
#82=CYLINDRICAL_SURFACE('',#112,3.0);
#83=FACE_OUTER_BOUND('',#113,.T.);
#84=CONICAL_SURFACE('',#114,0.150170341443584,0.122173047639604);
#85=FACE_OUTER_BOUND('',#115,.T.);
#86=CONICAL_SURFACE('',#116,0.150170341443584,0.122173047639604);
#87=FACE_OUTER_BOUND('',#117,.T.);
#88=CYLINDRICAL_SURFACE('',#118,3.0);
#89=FACE_OUTER_BOUND('',#119,.T.);
#90=PLANE('',#120);
#91=FACE_OUTER_BOUND('',#121,.T.);
#92=CONICAL_SURFACE('',#122,2.6,0.785398163397448);
#93=FACE_OUTER_BOUND('',#123,.T.);
#94=PLANE('',#124);
#95=SURFACE_STYLE_FILL_AREA(#125);
#96=FACE_OUTER_BOUND('',#126,.T.);
#97=CYLINDRICAL_SURFACE('',#127,0.150170341443584);
#98=FACE_OUTER_BOUND('',#128,.T.);
#99=TOROIDAL_SURFACE('',#129,0.000170341443584735,0.149999999999999);
#100=FACE_OUTER_BOUND('',#130,.T.);
#101=TOROIDAL_SURFACE('',#131,0.000170341443584735,0.149999999999999);
#102=FACE_OUTER_BOUND('',#132,.T.);
#103=CYLINDRICAL_SURFACE('',#133,0.150170341443584);
#104=FACE_OUTER_BOUND('',#134,.T.);
#105=PLANE('',#135);
#106=FACE_OUTER_BOUND('',#136,.T.);
#107=PLANE('',#137);
#108=FILL_AREA_STYLE('',(#138));
#109=EDGE_LOOP('',(#139,#140,#141,#142));
#110=AXIS2_PLACEMENT_3D('',#143,#144,#145);
#111=EDGE_LOOP('',(#146,#147,#148,#149));
#112=AXIS2_PLACEMENT_3D('',#150,#151,#152);
#113=EDGE_LOOP('',(#153,#154,#155,#156));
#114=AXIS2_PLACEMENT_3D('',#157,#158,#159);
#115=EDGE_LOOP('',(#160,#161,#162,#163));
#116=AXIS2_PLACEMENT_3D('',#164,#165,#166);
#117=EDGE_LOOP('',(#167,#168,#169,#170));
#118=AXIS2_PLACEMENT_3D('',#171,#172,#173);
#119=EDGE_LOOP('',(#174,#175));
#120=AXIS2_PLACEMENT_3D('',#176,#177,#178);
#121=EDGE_LOOP('',(#179,#180,#181,#182));
#122=AXIS2_PLACEMENT_3D('',#183,#184,#185);
#123=EDGE_LOOP('',(#186,#187));
#124=AXIS2_PLACEMENT_3D('',#188,#189,#190);
#125=FILL_AREA_STYLE('',(#191));
#126=EDGE_LOOP('',(#192,#193,#194,#195));
#127=AXIS2_PLACEMENT_3D('',#196,#197,#198);
#128=EDGE_LOOP('',(#199,#200,#201,#202));
#129=AXIS2_PLACEMENT_3D('',#203,#204,#205);
#130=EDGE_LOOP('',(#206,#207,#208,#209));
#131=AXIS2_PLACEMENT_3D('',#210,#211,#212);
#132=EDGE_LOOP('',(#213,#214,#215,#216));
#133=AXIS2_PLACEMENT_3D('',#217,#218,#219);
#134=EDGE_LOOP('',(#220,#221));
#135=AXIS2_PLACEMENT_3D('',#222,#223,#224);
#136=EDGE_LOOP('',(#225,#226));
#137=AXIS2_PLACEMENT_3D('',#227,#228,#229);
#138=FILL_AREA_STYLE_COLOUR('',#230);
#139=ORIENTED_EDGE('',*,*,#231,.F.);
#140=ORIENTED_EDGE('',*,*,#232,.T.);
#141=ORIENTED_EDGE('',*,*,#233,.F.);
#142=ORIENTED_EDGE('',*,*,#234,.T.);
#143=CARTESIAN_POINT('',(0.0,0.0,0.0));
#144=DIRECTION('',(-0.0,-0.0,-1.0));
#145=DIRECTION('',(-1.0,0.0,0.0));
#146=ORIENTED_EDGE('',*,*,#235,.F.);
#147=ORIENTED_EDGE('',*,*,#232,.F.);
#148=ORIENTED_EDGE('',*,*,#236,.F.);
#149=ORIENTED_EDGE('',*,*,#237,.F.);
#150=CARTESIAN_POINT('',(0.0,0.0,-31.5));
#151=DIRECTION('',(0.0,0.0,-1.0));
#152=DIRECTION('',(1.0,0.0,0.0));
#153=ORIENTED_EDGE('',*,*,#238,.F.);
#154=ORIENTED_EDGE('',*,*,#239,.T.);
#155=ORIENTED_EDGE('',*,*,#240,.F.);
#156=ORIENTED_EDGE('',*,*,#241,.T.);
#157=CARTESIAN_POINT('',(0.0,0.0,-63.0));
#158=DIRECTION('',(-0.0,-0.0,1.0));
#159=DIRECTION('',(-1.0,0.0,0.0));
#160=ORIENTED_EDGE('',*,*,#238,.T.);
#161=ORIENTED_EDGE('',*,*,#242,.T.);
#162=ORIENTED_EDGE('',*,*,#240,.T.);
#163=ORIENTED_EDGE('',*,*,#237,.T.);
#164=CARTESIAN_POINT('',(0.0,0.0,-63.0));
#165=DIRECTION('',(-0.0,-0.0,1.0));
#166=DIRECTION('',(-1.0,0.0,0.0));
#167=ORIENTED_EDGE('',*,*,#235,.T.);
#168=ORIENTED_EDGE('',*,*,#239,.F.);
#169=ORIENTED_EDGE('',*,*,#236,.T.);
#170=ORIENTED_EDGE('',*,*,#243,.F.);
#171=CARTESIAN_POINT('',(0.0,0.0,-31.5));
#172=DIRECTION('',(0.0,0.0,-1.0));
#173=DIRECTION('',(1.0,0.0,0.0));
#174=ORIENTED_EDGE('',*,*,#241,.F.);
#175=ORIENTED_EDGE('',*,*,#242,.F.);
#176=CARTESIAN_POINT('',(0.0,0.0,-63.0));
#177=DIRECTION('',(0.0,0.0,-1.0));
#178=DIRECTION('',(1.0,0.0,0.0));
#179=ORIENTED_EDGE('',*,*,#231,.T.);
#180=ORIENTED_EDGE('',*,*,#244,.T.);
#181=ORIENTED_EDGE('',*,*,#233,.T.);
#182=ORIENTED_EDGE('',*,*,#243,.T.);
#183=CARTESIAN_POINT('',(0.0,0.0,0.0));
#184=DIRECTION('',(-0.0,-0.0,-1.0));
#185=DIRECTION('',(-1.0,0.0,0.0));
#186=ORIENTED_EDGE('',*,*,#234,.F.);
#187=ORIENTED_EDGE('',*,*,#244,.F.);
#188=CARTESIAN_POINT('',(0.0,0.0,0.0));
#189=DIRECTION('',(0.0,0.0,1.0));
#190=DIRECTION('',(-1.0,0.0,0.0));
#191=FILL_AREA_STYLE_COLOUR('',#245);
#192=ORIENTED_EDGE('',*,*,#246,.F.);
#193=ORIENTED_EDGE('',*,*,#247,.F.);
#194=ORIENTED_EDGE('',*,*,#248,.F.);
#195=ORIENTED_EDGE('',*,*,#249,.F.);
#196=CARTESIAN_POINT('',(0.0,0.0,-63.0));
#197=DIRECTION('',(0.0,0.0,-1.0));
#198=DIRECTION('',(-1.0,0.0,0.0));
#199=ORIENTED_EDGE('',*,*,#250,.F.);
#200=ORIENTED_EDGE('',*,*,#251,.T.);
#201=ORIENTED_EDGE('',*,*,#252,.F.);
#202=ORIENTED_EDGE('',*,*,#253,.T.);
#203=CARTESIAN_POINT('',(0.0,0.0,-63.85));
#204=DIRECTION('',(0.0,0.0,1.0));
#205=DIRECTION('',(-1.0,0.0,0.0));
#206=ORIENTED_EDGE('',*,*,#250,.T.);
#207=ORIENTED_EDGE('',*,*,#249,.T.);
#208=ORIENTED_EDGE('',*,*,#252,.T.);
#209=ORIENTED_EDGE('',*,*,#254,.T.);
#210=CARTESIAN_POINT('',(0.0,0.0,-63.85));
#211=DIRECTION('',(0.0,0.0,1.0));
#212=DIRECTION('',(-1.0,0.0,0.0));
#213=ORIENTED_EDGE('',*,*,#246,.T.);
#214=ORIENTED_EDGE('',*,*,#253,.F.);
#215=ORIENTED_EDGE('',*,*,#248,.T.);
#216=ORIENTED_EDGE('',*,*,#255,.F.);
#217=CARTESIAN_POINT('',(0.0,0.0,-63.0));
#218=DIRECTION('',(0.0,0.0,-1.0));
#219=DIRECTION('',(-1.0,0.0,0.0));
#220=ORIENTED_EDGE('',*,*,#254,.F.);
#221=ORIENTED_EDGE('',*,*,#251,.F.);
#222=CARTESIAN_POINT('',(0.0,0.0,-64.0));
#223=DIRECTION('',(0.0,0.0,-1.0));
#224=DIRECTION('',(1.0,0.0,0.0));
#225=ORIENTED_EDGE('',*,*,#247,.T.);
#226=ORIENTED_EDGE('',*,*,#255,.T.);
#227=CARTESIAN_POINT('',(0.0,0.0,-63.0));
#228=DIRECTION('',(0.0,0.0,-1.0));
#229=DIRECTION('',(1.0,0.0,0.0));
#230=COLOUR_RGB('',0.756862759590149,0.756862759590149,0.756862759590149);
#231=EDGE_CURVE('',#256,#257,#258,.T.);
#232=EDGE_CURVE('',#256,#259,#260,.T.);
#233=EDGE_CURVE('',#261,#259,#262,.T.);
#234=EDGE_CURVE('',#261,#257,#263,.T.);
#235=EDGE_CURVE('',#259,#264,#265,.T.);
#236=EDGE_CURVE('',#266,#256,#267,.T.);
#237=EDGE_CURVE('',#264,#266,#268,.T.);
#238=EDGE_CURVE('',#266,#269,#270,.T.);
#239=EDGE_CURVE('',#266,#264,#271,.T.);
#240=EDGE_CURVE('',#272,#264,#273,.T.);
#241=EDGE_CURVE('',#272,#269,#274,.T.);
#242=EDGE_CURVE('',#269,#272,#275,.T.);
#243=EDGE_CURVE('',#259,#256,#276,.T.);
#244=EDGE_CURVE('',#257,#261,#277,.T.);
#245=COLOUR_RGB('',0.0,1.0,0.0);
#246=EDGE_CURVE('',#278,#279,#280,.T.);
#247=EDGE_CURVE('',#281,#278,#282,.T.);
#248=EDGE_CURVE('',#283,#281,#284,.T.);
#249=EDGE_CURVE('',#279,#283,#285,.T.);
#250=EDGE_CURVE('',#286,#279,#287,.T.);
#251=EDGE_CURVE('',#286,#288,#289,.T.);
#252=EDGE_CURVE('',#283,#288,#290,.T.);
#253=EDGE_CURVE('',#283,#279,#291,.T.);
#254=EDGE_CURVE('',#288,#286,#292,.T.);
#255=EDGE_CURVE('',#278,#281,#293,.T.);
#256=VERTEX_POINT('',#294);
#257=VERTEX_POINT('',#295);
#258=LINE('',#296,#297);
#259=VERTEX_POINT('',#298);
#260=CIRCLE('',#299,3.0);
#261=VERTEX_POINT('',#300);
#262=LINE('',#301,#302);
#263=CIRCLE('',#303,2.6);
#264=VERTEX_POINT('',#304);
#265=LINE('',#305,#306);
#266=VERTEX_POINT('',#307);
#267=LINE('',#308,#309);
#268=CIRCLE('',#310,3.0);
#269=VERTEX_POINT('',#311);
#270=LINE('',#312,#313);
#271=CIRCLE('',#314,3.0);
#272=VERTEX_POINT('',#315);
#273=LINE('',#316,#317);
#274=CIRCLE('',#318,0.150170341443584);
#275=CIRCLE('',#319,0.150170341443584);
#276=CIRCLE('',#320,3.0);
#277=CIRCLE('',#321,2.6);
#278=VERTEX_POINT('',#322);
#279=VERTEX_POINT('',#323);
#280=LINE('',#324,#325);
#281=VERTEX_POINT('',#326);
#282=CIRCLE('',#327,0.150170341443584);
#283=VERTEX_POINT('',#328);
#284=LINE('',#329,#330);
#285=CIRCLE('',#331,0.150170341443584);
#286=VERTEX_POINT('',#332);
#287=CIRCLE('',#333,0.149999999999999);
#288=VERTEX_POINT('',#334);
#289=CIRCLE('',#335,0.000170341443584735);
#290=CIRCLE('',#336,0.149999999999999);
#291=CIRCLE('',#337,0.150170341443584);
#292=CIRCLE('',#338,0.000170341443584735);
#293=CIRCLE('',#339,0.150170341443584);
#294=CARTESIAN_POINT('',(-3.0,-3.67394039744206E-16,-0.400000000000002));
#295=CARTESIAN_POINT('',(-2.6,3.18408167778312E-16,0.0));
#296=CARTESIAN_POINT('',(-2.6,3.18408167778312E-16,0.0));
#297=VECTOR('',#340,1.0);
#298=CARTESIAN_POINT('',(3.0,3.67394039744206E-16,-0.400000000000002));
#299=AXIS2_PLACEMENT_3D('',#341,#342,#343);
#300=CARTESIAN_POINT('',(2.6,-3.18408167778312E-16,0.0));
#301=CARTESIAN_POINT('',(2.6,-3.18408167778312E-16,0.0));
#302=VECTOR('',#344,1.0);
#303=AXIS2_PLACEMENT_3D('',#345,#346,#347);
#304=CARTESIAN_POINT('',(3.0,-3.67394039744206E-16,-39.79));
#305=CARTESIAN_POINT('',(3.0,3.67394039744206E-16,-31.5));
#306=VECTOR('',#348,1.0);
#307=CARTESIAN_POINT('',(-3.0,-3.67394039744206E-16,-39.79));
#308=CARTESIAN_POINT('',(-3.0,-3.67394039744206E-16,-31.5));
#309=VECTOR('',#349,1.0);
#310=AXIS2_PLACEMENT_3D('',#350,#351,#352);
#311=CARTESIAN_POINT('',(-0.150170341443584,-1.8390562797575E-17,-63.0));
#312=CARTESIAN_POINT('',(-0.150170341443584,-1.8390562797575E-17,-63.0));
#313=VECTOR('',#353,1.0);
#314=AXIS2_PLACEMENT_3D('',#354,#355,#356);
#315=CARTESIAN_POINT('',(0.150170341443584,1.8390562797575E-17,-63.0));
#316=CARTESIAN_POINT('',(0.150170341443584,1.8390562797575E-17,-63.0));
#317=VECTOR('',#357,1.0);
#318=AXIS2_PLACEMENT_3D('',#358,#359,#360);
#319=AXIS2_PLACEMENT_3D('',#361,#362,#363);
#320=AXIS2_PLACEMENT_3D('',#364,#365,#366);
#321=AXIS2_PLACEMENT_3D('',#367,#368,#369);
#322=CARTESIAN_POINT('',(-0.150170341443584,-1.8390562797575E-17,-63.0));
#323=CARTESIAN_POINT('',(-0.150170341443584,1.8390562797575E-17,-63.85));
#324=CARTESIAN_POINT('',(-0.150170341443584,-1.8390562797575E-17,-63.0));
#325=VECTOR('',#370,1.0);
#326=CARTESIAN_POINT('',(0.150170341443584,1.8390562797575E-17,-63.0));
#327=AXIS2_PLACEMENT_3D('',#371,#372,#373);
#328=CARTESIAN_POINT('',(0.150170341443584,-1.8390562797575E-17,-63.85));
#329=CARTESIAN_POINT('',(0.150170341443584,1.8390562797575E-17,-63.0));
#330=VECTOR('',#374,1.0);
#331=AXIS2_PLACEMENT_3D('',#375,#376,#377);
#332=CARTESIAN_POINT('',(-0.000170341443584735,2.08608103648185E-20,-64.0));
#333=AXIS2_PLACEMENT_3D('',#378,#379,#380);
#334=CARTESIAN_POINT('',(0.000170341443584735,2.08608103648185E-20,-64.0));
#335=AXIS2_PLACEMENT_3D('',#381,#382,#383);
#336=AXIS2_PLACEMENT_3D('',#384,#385,#386);
#337=AXIS2_PLACEMENT_3D('',#387,#388,#389);
#338=AXIS2_PLACEMENT_3D('',#390,#391,#392);
#339=AXIS2_PLACEMENT_3D('',#393,#394,#395);
#340=DIRECTION('',(0.707106781186547,-8.65956056235493E-17,0.707106781186548));
#341=CARTESIAN_POINT('',(0.0,0.0,-0.400000000000002));
#342=DIRECTION('',(0.0,0.0,1.0));
#343=DIRECTION('',(-1.0,0.0,0.0));
#344=DIRECTION('',(0.707106781186547,-8.65956056235493E-17,-0.707106781186548));
#345=CARTESIAN_POINT('',(0.0,0.0,0.0));
#346=DIRECTION('',(0.0,0.0,-1.0));
#347=DIRECTION('',(-1.0,0.0,0.0));
#348=DIRECTION('',(0.0,0.0,-1.0));
#349=DIRECTION('',(-0.0,-0.0,1.0));
#350=CARTESIAN_POINT('',(0.0,0.0,-39.79));
#351=DIRECTION('',(0.0,0.0,-1.0));
#352=DIRECTION('',(-1.0,0.0,0.0));
#353=DIRECTION('',(0.121869343405147,1.49246901315303E-17,-0.992546151641322));
#354=CARTESIAN_POINT('',(0.0,0.0,-39.79));
#355=DIRECTION('',(0.0,0.0,-1.0));
#356=DIRECTION('',(-1.0,0.0,0.0));
#357=DIRECTION('',(0.121869343405147,1.49246901315303E-17,0.992546151641322));
#358=CARTESIAN_POINT('',(0.0,0.0,-63.0));
#359=DIRECTION('',(0.0,0.0,1.0));
#360=DIRECTION('',(-1.0,0.0,0.0));
#361=CARTESIAN_POINT('',(0.0,0.0,-63.0));
#362=DIRECTION('',(0.0,0.0,1.0));
#363=DIRECTION('',(-1.0,0.0,0.0));
#364=CARTESIAN_POINT('',(0.0,0.0,-0.400000000000002));
#365=DIRECTION('',(0.0,0.0,1.0));
#366=DIRECTION('',(-1.0,0.0,0.0));
#367=CARTESIAN_POINT('',(0.0,0.0,0.0));
#368=DIRECTION('',(0.0,0.0,-1.0));
#369=DIRECTION('',(-1.0,0.0,0.0));
#370=DIRECTION('',(0.0,0.0,-1.0));
#371=CARTESIAN_POINT('',(0.0,0.0,-63.0));
#372=DIRECTION('',(0.0,0.0,1.0));
#373=DIRECTION('',(-1.0,0.0,0.0));
#374=DIRECTION('',(-0.0,-0.0,1.0));
#375=CARTESIAN_POINT('',(0.0,0.0,-63.85));
#376=DIRECTION('',(0.0,0.0,-1.0));
#377=DIRECTION('',(-1.0,0.0,0.0));
#378=CARTESIAN_POINT('',(-0.000170341443584735,2.08608103648185E-20,-63.85));
#379=DIRECTION('',(1.22464679914735E-16,1.0,-0.0));
#380=DIRECTION('',(-1.0,1.22464679914735E-16,0.0));
#381=CARTESIAN_POINT('',(0.0,0.0,-64.0));
#382=DIRECTION('',(0.0,0.0,1.0));
#383=DIRECTION('',(-1.0,0.0,0.0));
#384=CARTESIAN_POINT('',(0.000170341443584735,-2.08608103648185E-20,-63.85));
#385=DIRECTION('',(1.22464679914735E-16,1.0,0.0));
#386=DIRECTION('',(1.0,-1.22464679914735E-16,0.0));
#387=CARTESIAN_POINT('',(0.0,0.0,-63.85));
#388=DIRECTION('',(0.0,0.0,-1.0));
#389=DIRECTION('',(-1.0,0.0,0.0));
#390=CARTESIAN_POINT('',(0.0,0.0,-64.0));
#391=DIRECTION('',(0.0,0.0,1.0));
#392=DIRECTION('',(-1.0,0.0,0.0));
#393=CARTESIAN_POINT('',(0.0,0.0,-63.0));
#394=DIRECTION('',(0.0,0.0,1.0));
#395=DIRECTION('',(-1.0,0.0,0.0));
ENDSEC;
END-ISO-10303-21;
