ISO-10303-21;
HEADER;
FILE_DESCRIPTION(('STEP AP214'),'1');
FILE_NAME('RG06008B1.8_DC.stp','2024-05-22T18:14:49',(' '),(' '),'Spatial InterOp 3D',' ',' ');
FILE_SCHEMA(('AUTOMOTIVE_DESIGN { 1 0 10303 214 1 1 1 1 }'));
ENDSEC;
DATA;
#1=MECHANICAL_DESIGN_GEOMETRIC_PRESENTATION_REPRESENTATION(' ',(#11,#12),#7);
#2=PRODUCT_DEFINITION_CONTEXT('',#13,'design');
#3=APPLICATION_PROTOCOL_DEFINITION('INTERNATIONAL STANDARD','automotive_design',1994,#13);
#4=PRODUCT_CATEGORY_RELATIONSHIP('NONE','NONE',#14,#15);
#5=SHAPE_DEFINITION_REPRESENTATION(#16,#17);
#6=SHAPE_DEFINITION_REPRESENTATION(#16,#18);
#7= (GEOMETRIC_REPRESENTATION_CONTEXT(3)GLOBAL_UNCERTAINTY_ASSIGNED_CONTEXT((#21))GLOBAL_UNIT_ASSIGNED_CONTEXT((#23,#24,#25))REPRESENTATION_CONTEXT('NONE','WORKSPACE'));
#11=STYLED_ITEM('',(#27),#28);
#12=STYLED_ITEM('',(#29),#30);
#13=APPLICATION_CONTEXT(' ');
#14=PRODUCT_CATEGORY('part','NONE');
#15=PRODUCT_RELATED_PRODUCT_CATEGORY('detail',' ',(#31));
#16=PRODUCT_DEFINITION_SHAPE('NONE','NONE',#32);
#17=ADVANCED_BREP_SHAPE_REPRESENTATION('1',(#28,#33),#7);
#18=ADVANCED_BREP_SHAPE_REPRESENTATION('2',(#30,#34),#7);
#21=UNCERTAINTY_MEASURE_WITH_UNIT(LENGTH_MEASURE(1.0E-06),#23,'','');
#23= (CONVERSION_BASED_UNIT('MILLIMETRE',#37)LENGTH_UNIT()NAMED_UNIT(#40));
#24= (NAMED_UNIT(#42)PLANE_ANGLE_UNIT()SI_UNIT($,.RADIAN.));
#25= (NAMED_UNIT(#42)SOLID_ANGLE_UNIT()SI_UNIT($,.STERADIAN.));
#27=PRESENTATION_STYLE_ASSIGNMENT((#48));
#28=MANIFOLD_SOLID_BREP('1',#49);
#29=PRESENTATION_STYLE_ASSIGNMENT((#50));
#30=MANIFOLD_SOLID_BREP('2',#51);
#31=PRODUCT('1','','PART--DESC',(#52));
#32=PRODUCT_DEFINITION('','NONE',#53,#2);
#33=AXIS2_PLACEMENT_3D('',#54,#55,#56);
#34=AXIS2_PLACEMENT_3D('',#57,#58,#59);
#37=LENGTH_MEASURE_WITH_UNIT(LENGTH_MEASURE(1.0),#60);
#40=DIMENSIONAL_EXPONENTS(1.0,0.0,0.0,0.0,0.0,0.0,0.0);
#42=DIMENSIONAL_EXPONENTS(0.0,0.0,0.0,0.0,0.0,0.0,0.0);
#48=SURFACE_STYLE_USAGE(.BOTH.,#61);
#49=CLOSED_SHELL('',(#62,#63,#64,#65,#66,#67,#68,#69));
#50=SURFACE_STYLE_USAGE(.BOTH.,#70);
#51=CLOSED_SHELL('',(#71,#72,#73,#74,#75));
#52=PRODUCT_CONTEXT('',#13,'mechanical');
#53=PRODUCT_DEFINITION_FORMATION_WITH_SPECIFIED_SOURCE(' ','NONE',#31,.NOT_KNOWN.);
#54=CARTESIAN_POINT('',(0.0,0.0,0.0));
#55=DIRECTION('',(0.0,0.0,1.0));
#56=DIRECTION('',(1.0,0.0,0.0));
#57=CARTESIAN_POINT('',(0.0,0.0,0.0));
#58=DIRECTION('',(0.0,0.0,1.0));
#59=DIRECTION('',(1.0,0.0,0.0));
#60= (NAMED_UNIT(#40)LENGTH_UNIT()SI_UNIT(.MILLI.,.METRE.));
#61=SURFACE_SIDE_STYLE('',(#77));
#62=ADVANCED_FACE('',(#78),#79,.T.);
#63=ADVANCED_FACE('',(#80),#81,.T.);
#64=ADVANCED_FACE('',(#82),#83,.T.);
#65=ADVANCED_FACE('',(#84),#85,.T.);
#66=ADVANCED_FACE('',(#86),#87,.T.);
#67=ADVANCED_FACE('',(#88),#89,.T.);
#68=ADVANCED_FACE('',(#90),#91,.T.);
#69=ADVANCED_FACE('',(#92),#93,.T.);
#70=SURFACE_SIDE_STYLE('',(#94));
#71=ADVANCED_FACE('',(#95),#96,.T.);
#72=ADVANCED_FACE('',(#97),#98,.T.);
#73=ADVANCED_FACE('',(#99),#100,.T.);
#74=ADVANCED_FACE('',(#101),#102,.T.);
#75=ADVANCED_FACE('',(#103),#104,.F.);
#77=SURFACE_STYLE_FILL_AREA(#105);
#78=FACE_OUTER_BOUND('',#106,.T.);
#79=CONICAL_SURFACE('',#107,2.6,0.785398163397448);
#80=FACE_OUTER_BOUND('',#108,.T.);
#81=CYLINDRICAL_SURFACE('',#109,3.0);
#82=FACE_OUTER_BOUND('',#110,.T.);
#83=CONICAL_SURFACE('',#111,0.399721219527164,0.10471975511966);
#84=FACE_OUTER_BOUND('',#112,.T.);
#85=CONICAL_SURFACE('',#113,0.399721219527164,0.10471975511966);
#86=FACE_OUTER_BOUND('',#114,.T.);
#87=CYLINDRICAL_SURFACE('',#115,3.0);
#88=FACE_OUTER_BOUND('',#116,.T.);
#89=PLANE('',#117);
#90=FACE_OUTER_BOUND('',#118,.T.);
#91=CONICAL_SURFACE('',#119,2.6,0.785398163397448);
#92=FACE_OUTER_BOUND('',#120,.T.);
#93=PLANE('',#121);
#94=SURFACE_STYLE_FILL_AREA(#122);
#95=FACE_OUTER_BOUND('',#123,.T.);
#96=CYLINDRICAL_SURFACE('',#124,0.399721219527164);
#97=FACE_OUTER_BOUND('',#125,.T.);
#98=SPHERICAL_SURFACE('',#126,0.4);
#99=FACE_OUTER_BOUND('',#127,.T.);
#100=SPHERICAL_SURFACE('',#128,0.4);
#101=FACE_OUTER_BOUND('',#129,.T.);
#102=CYLINDRICAL_SURFACE('',#130,0.399721219527164);
#103=FACE_OUTER_BOUND('',#131,.T.);
#104=PLANE('',#132);
#105=FILL_AREA_STYLE('',(#133));
#106=EDGE_LOOP('',(#134,#135,#136,#137));
#107=AXIS2_PLACEMENT_3D('',#138,#139,#140);
#108=EDGE_LOOP('',(#141,#142,#143,#144));
#109=AXIS2_PLACEMENT_3D('',#145,#146,#147);
#110=EDGE_LOOP('',(#148,#149,#150,#151));
#111=AXIS2_PLACEMENT_3D('',#152,#153,#154);
#112=EDGE_LOOP('',(#155,#156,#157,#158));
#113=AXIS2_PLACEMENT_3D('',#159,#160,#161);
#114=EDGE_LOOP('',(#162,#163,#164,#165));
#115=AXIS2_PLACEMENT_3D('',#166,#167,#168);
#116=EDGE_LOOP('',(#169,#170));
#117=AXIS2_PLACEMENT_3D('',#171,#172,#173);
#118=EDGE_LOOP('',(#174,#175,#176,#177));
#119=AXIS2_PLACEMENT_3D('',#178,#179,#180);
#120=EDGE_LOOP('',(#181,#182));
#121=AXIS2_PLACEMENT_3D('',#183,#184,#185);
#122=FILL_AREA_STYLE('',(#186));
#123=EDGE_LOOP('',(#187,#188,#189,#190));
#124=AXIS2_PLACEMENT_3D('',#191,#192,#193);
#125=EDGE_LOOP('',(#194,#195,#196));
#126=AXIS2_PLACEMENT_3D('',#197,#198,#199);
#127=EDGE_LOOP('',(#200,#201,#202));
#128=AXIS2_PLACEMENT_3D('',#203,#204,#205);
#129=EDGE_LOOP('',(#206,#207,#208,#209));
#130=AXIS2_PLACEMENT_3D('',#210,#211,#212);
#131=EDGE_LOOP('',(#213,#214));
#132=AXIS2_PLACEMENT_3D('',#215,#216,#217);
#133=FILL_AREA_STYLE_COLOUR('',#218);
#134=ORIENTED_EDGE('',*,*,#219,.F.);
#135=ORIENTED_EDGE('',*,*,#220,.T.);
#136=ORIENTED_EDGE('',*,*,#221,.F.);
#137=ORIENTED_EDGE('',*,*,#222,.T.);
#138=CARTESIAN_POINT('',(0.0,0.0,0.0));
#139=DIRECTION('',(-0.0,-0.0,-1.0));
#140=DIRECTION('',(-1.0,0.0,0.0));
#141=ORIENTED_EDGE('',*,*,#223,.F.);
#142=ORIENTED_EDGE('',*,*,#220,.F.);
#143=ORIENTED_EDGE('',*,*,#224,.F.);
#144=ORIENTED_EDGE('',*,*,#225,.F.);
#145=CARTESIAN_POINT('',(0.0,0.0,-31.0));
#146=DIRECTION('',(0.0,0.0,-1.0));
#147=DIRECTION('',(1.0,0.0,0.0));
#148=ORIENTED_EDGE('',*,*,#226,.F.);
#149=ORIENTED_EDGE('',*,*,#227,.T.);
#150=ORIENTED_EDGE('',*,*,#228,.F.);
#151=ORIENTED_EDGE('',*,*,#229,.T.);
#152=CARTESIAN_POINT('',(0.0,0.0,-62.0));
#153=DIRECTION('',(-0.0,-0.0,1.0));
#154=DIRECTION('',(-1.0,0.0,0.0));
#155=ORIENTED_EDGE('',*,*,#226,.T.);
#156=ORIENTED_EDGE('',*,*,#230,.T.);
#157=ORIENTED_EDGE('',*,*,#228,.T.);
#158=ORIENTED_EDGE('',*,*,#225,.T.);
#159=CARTESIAN_POINT('',(0.0,0.0,-62.0));
#160=DIRECTION('',(-0.0,-0.0,1.0));
#161=DIRECTION('',(-1.0,0.0,0.0));
#162=ORIENTED_EDGE('',*,*,#223,.T.);
#163=ORIENTED_EDGE('',*,*,#227,.F.);
#164=ORIENTED_EDGE('',*,*,#224,.T.);
#165=ORIENTED_EDGE('',*,*,#231,.F.);
#166=CARTESIAN_POINT('',(0.0,0.0,-31.0));
#167=DIRECTION('',(0.0,0.0,-1.0));
#168=DIRECTION('',(1.0,0.0,0.0));
#169=ORIENTED_EDGE('',*,*,#229,.F.);
#170=ORIENTED_EDGE('',*,*,#230,.F.);
#171=CARTESIAN_POINT('',(0.0,0.0,-62.0));
#172=DIRECTION('',(0.0,0.0,-1.0));
#173=DIRECTION('',(1.0,0.0,0.0));
#174=ORIENTED_EDGE('',*,*,#219,.T.);
#175=ORIENTED_EDGE('',*,*,#232,.T.);
#176=ORIENTED_EDGE('',*,*,#221,.T.);
#177=ORIENTED_EDGE('',*,*,#231,.T.);
#178=CARTESIAN_POINT('',(0.0,0.0,0.0));
#179=DIRECTION('',(-0.0,-0.0,-1.0));
#180=DIRECTION('',(-1.0,0.0,0.0));
#181=ORIENTED_EDGE('',*,*,#222,.F.);
#182=ORIENTED_EDGE('',*,*,#232,.F.);
#183=CARTESIAN_POINT('',(0.0,0.0,0.0));
#184=DIRECTION('',(0.0,0.0,1.0));
#185=DIRECTION('',(-1.0,0.0,0.0));
#186=FILL_AREA_STYLE_COLOUR('',#233);
#187=ORIENTED_EDGE('',*,*,#234,.F.);
#188=ORIENTED_EDGE('',*,*,#235,.F.);
#189=ORIENTED_EDGE('',*,*,#236,.F.);
#190=ORIENTED_EDGE('',*,*,#237,.F.);
#191=CARTESIAN_POINT('',(0.0,0.0,-62.0));
#192=DIRECTION('',(0.0,0.0,-1.0));
#193=DIRECTION('',(-1.0,0.0,0.0));
#194=ORIENTED_EDGE('',*,*,#238,.F.);
#195=ORIENTED_EDGE('',*,*,#239,.T.);
#196=ORIENTED_EDGE('',*,*,#240,.F.);
#197=CARTESIAN_POINT('',(0.0,0.0,-63.6));
#198=DIRECTION('',(0.0,0.0,1.0));
#199=DIRECTION('',(-1.0,0.0,0.0));
#200=ORIENTED_EDGE('',*,*,#238,.T.);
#201=ORIENTED_EDGE('',*,*,#240,.T.);
#202=ORIENTED_EDGE('',*,*,#237,.T.);
#203=CARTESIAN_POINT('',(0.0,0.0,-63.6));
#204=DIRECTION('',(0.0,0.0,1.0));
#205=DIRECTION('',(-1.0,0.0,0.0));
#206=ORIENTED_EDGE('',*,*,#234,.T.);
#207=ORIENTED_EDGE('',*,*,#239,.F.);
#208=ORIENTED_EDGE('',*,*,#236,.T.);
#209=ORIENTED_EDGE('',*,*,#241,.F.);
#210=CARTESIAN_POINT('',(0.0,0.0,-62.0));
#211=DIRECTION('',(0.0,0.0,-1.0));
#212=DIRECTION('',(-1.0,0.0,0.0));
#213=ORIENTED_EDGE('',*,*,#235,.T.);
#214=ORIENTED_EDGE('',*,*,#241,.T.);
#215=CARTESIAN_POINT('',(0.0,0.0,-62.0));
#216=DIRECTION('',(0.0,0.0,-1.0));
#217=DIRECTION('',(1.0,0.0,0.0));
#218=COLOUR_RGB('',0.756862759590149,0.756862759590149,0.756862759590149);
#219=EDGE_CURVE('',#242,#243,#244,.T.);
#220=EDGE_CURVE('',#242,#245,#246,.T.);
#221=EDGE_CURVE('',#247,#245,#248,.T.);
#222=EDGE_CURVE('',#247,#243,#249,.T.);
#223=EDGE_CURVE('',#245,#250,#251,.T.);
#224=EDGE_CURVE('',#252,#242,#253,.T.);
#225=EDGE_CURVE('',#250,#252,#254,.T.);
#226=EDGE_CURVE('',#252,#255,#256,.T.);
#227=EDGE_CURVE('',#252,#250,#257,.T.);
#228=EDGE_CURVE('',#258,#250,#259,.T.);
#229=EDGE_CURVE('',#258,#255,#260,.T.);
#230=EDGE_CURVE('',#255,#258,#261,.T.);
#231=EDGE_CURVE('',#245,#242,#262,.T.);
#232=EDGE_CURVE('',#243,#247,#263,.T.);
#233=COLOUR_RGB('',0.0,1.0,0.0);
#234=EDGE_CURVE('',#264,#265,#266,.T.);
#235=EDGE_CURVE('',#267,#264,#268,.T.);
#236=EDGE_CURVE('',#269,#267,#270,.T.);
#237=EDGE_CURVE('',#265,#269,#271,.T.);
#238=EDGE_CURVE('',#269,#272,#273,.T.);
#239=EDGE_CURVE('',#269,#265,#274,.T.);
#240=EDGE_CURVE('',#272,#265,#275,.T.);
#241=EDGE_CURVE('',#264,#267,#276,.T.);
#242=VERTEX_POINT('',#277);
#243=VERTEX_POINT('',#278);
#244=LINE('',#279,#280);
#245=VERTEX_POINT('',#281);
#246=CIRCLE('',#282,3.0);
#247=VERTEX_POINT('',#283);
#248=LINE('',#284,#285);
#249=CIRCLE('',#286,2.6);
#250=VERTEX_POINT('',#287);
#251=LINE('',#288,#289);
#252=VERTEX_POINT('',#290);
#253=LINE('',#291,#292);
#254=CIRCLE('',#293,3.0);
#255=VERTEX_POINT('',#294);
#256=LINE('',#295,#296);
#257=CIRCLE('',#297,3.0);
#258=VERTEX_POINT('',#298);
#259=LINE('',#299,#300);
#260=CIRCLE('',#301,0.399721219527164);
#261=CIRCLE('',#302,0.399721219527164);
#262=CIRCLE('',#303,3.0);
#263=CIRCLE('',#304,2.6);
#264=VERTEX_POINT('',#305);
#265=VERTEX_POINT('',#306);
#266=LINE('',#307,#308);
#267=VERTEX_POINT('',#309);
#268=CIRCLE('',#310,0.399721219527164);
#269=VERTEX_POINT('',#311);
#270=LINE('',#312,#313);
#271=CIRCLE('',#314,0.399721219527164);
#272=VERTEX_POINT('',#315);
#273=CIRCLE('',#316,0.4);
#274=CIRCLE('',#317,0.399721219527164);
#275=CIRCLE('',#318,0.4);
#276=CIRCLE('',#319,0.399721219527164);
#277=CARTESIAN_POINT('',(-3.0,-3.67394039744206E-16,-0.399999999999999));
#278=CARTESIAN_POINT('',(-2.6,3.18408167778312E-16,0.0));
#279=CARTESIAN_POINT('',(-2.6,3.18408167778312E-16,0.0));
#280=VECTOR('',#320,1.0);
#281=CARTESIAN_POINT('',(3.0,3.67394039744206E-16,-0.399999999999999));
#282=AXIS2_PLACEMENT_3D('',#321,#322,#323);
#283=CARTESIAN_POINT('',(2.6,-3.18408167778312E-16,0.0));
#284=CARTESIAN_POINT('',(2.6,-3.18408167778312E-16,0.0));
#285=VECTOR('',#324,1.0);
#286=AXIS2_PLACEMENT_3D('',#325,#326,#327);
#287=CARTESIAN_POINT('',(3.0,-3.67394039744206E-16,-37.26));
#288=CARTESIAN_POINT('',(3.0,3.67394039744206E-16,-31.0));
#289=VECTOR('',#328,1.0);
#290=CARTESIAN_POINT('',(-3.0,-3.67394039744206E-16,-37.26));
#291=CARTESIAN_POINT('',(-3.0,-3.67394039744206E-16,-31.0));
#292=VECTOR('',#329,1.0);
#293=AXIS2_PLACEMENT_3D('',#330,#331,#332);
#294=CARTESIAN_POINT('',(-0.399721219527164,-4.89517312045219E-17,-62.0));
#295=CARTESIAN_POINT('',(-0.399721219527164,-4.89517312045219E-17,-62.0));
#296=VECTOR('',#333,1.0);
#297=AXIS2_PLACEMENT_3D('',#334,#335,#336);
#298=CARTESIAN_POINT('',(0.399721219527164,4.89517312045218E-17,-62.0));
#299=CARTESIAN_POINT('',(0.399721219527164,4.89517312045218E-17,-62.0));
#300=VECTOR('',#337,1.0);
#301=AXIS2_PLACEMENT_3D('',#338,#339,#340);
#302=AXIS2_PLACEMENT_3D('',#341,#342,#343);
#303=AXIS2_PLACEMENT_3D('',#344,#345,#346);
#304=AXIS2_PLACEMENT_3D('',#347,#348,#349);
#305=CARTESIAN_POINT('',(-0.399721219527164,-4.89517312045218E-17,-62.0));
#306=CARTESIAN_POINT('',(-0.399721219527164,4.89517312045218E-17,-63.6));
#307=CARTESIAN_POINT('',(-0.399721219527164,-4.89517312045218E-17,-62.0));
#308=VECTOR('',#350,1.0);
#309=CARTESIAN_POINT('',(0.399721219527164,4.89517312045218E-17,-62.0));
#310=AXIS2_PLACEMENT_3D('',#351,#352,#353);
#311=CARTESIAN_POINT('',(0.399721219527164,-4.89517312045218E-17,-63.6));
#312=CARTESIAN_POINT('',(0.399721219527164,4.89517312045218E-17,-62.0));
#313=VECTOR('',#354,1.0);
#314=AXIS2_PLACEMENT_3D('',#355,#356,#357);
#315=CARTESIAN_POINT('',(0.0,0.0,-64.0));
#316=AXIS2_PLACEMENT_3D('',#358,#359,#360);
#317=AXIS2_PLACEMENT_3D('',#361,#362,#363);
#318=AXIS2_PLACEMENT_3D('',#364,#365,#366);
#319=AXIS2_PLACEMENT_3D('',#367,#368,#369);
#320=DIRECTION('',(0.707106781186547,-8.65956056235493E-17,0.707106781186548));
#321=CARTESIAN_POINT('',(0.0,0.0,-0.399999999999999));
#322=DIRECTION('',(0.0,0.0,1.0));
#323=DIRECTION('',(-1.0,0.0,0.0));
#324=DIRECTION('',(0.707106781186547,-8.65956056235493E-17,-0.707106781186548));
#325=CARTESIAN_POINT('',(0.0,0.0,0.0));
#326=DIRECTION('',(0.0,0.0,-1.0));
#327=DIRECTION('',(-1.0,0.0,0.0));
#328=DIRECTION('',(0.0,0.0,-1.0));
#329=DIRECTION('',(-0.0,-0.0,1.0));
#330=CARTESIAN_POINT('',(0.0,0.0,-37.26));
#331=DIRECTION('',(0.0,0.0,-1.0));
#332=DIRECTION('',(-1.0,0.0,0.0));
#333=DIRECTION('',(0.104528463267653,1.28010447960524E-17,-0.994521895368273));
#334=CARTESIAN_POINT('',(0.0,0.0,-37.26));
#335=DIRECTION('',(0.0,0.0,-1.0));
#336=DIRECTION('',(-1.0,0.0,0.0));
#337=DIRECTION('',(0.104528463267653,1.28010447960524E-17,0.994521895368273));
#338=CARTESIAN_POINT('',(0.0,0.0,-62.0));
#339=DIRECTION('',(0.0,0.0,1.0));
#340=DIRECTION('',(-1.0,0.0,0.0));
#341=CARTESIAN_POINT('',(0.0,0.0,-62.0));
#342=DIRECTION('',(0.0,0.0,1.0));
#343=DIRECTION('',(-1.0,0.0,0.0));
#344=CARTESIAN_POINT('',(0.0,0.0,-0.399999999999999));
#345=DIRECTION('',(0.0,0.0,1.0));
#346=DIRECTION('',(-1.0,0.0,0.0));
#347=CARTESIAN_POINT('',(0.0,0.0,0.0));
#348=DIRECTION('',(0.0,0.0,-1.0));
#349=DIRECTION('',(-1.0,0.0,0.0));
#350=DIRECTION('',(0.0,0.0,-1.0));
#351=CARTESIAN_POINT('',(0.0,0.0,-62.0));
#352=DIRECTION('',(0.0,0.0,1.0));
#353=DIRECTION('',(-1.0,0.0,0.0));
#354=DIRECTION('',(-0.0,-0.0,1.0));
#355=CARTESIAN_POINT('',(0.0,0.0,-63.6));
#356=DIRECTION('',(0.0,0.0,-1.0));
#357=DIRECTION('',(-1.0,0.0,0.0));
#358=CARTESIAN_POINT('',(0.0,0.0,-63.6));
#359=DIRECTION('',(1.22464679914735E-16,1.0,0.0));
#360=DIRECTION('',(0.0,-0.0,-1.0));
#361=CARTESIAN_POINT('',(0.0,0.0,-63.6));
#362=DIRECTION('',(0.0,0.0,-1.0));
#363=DIRECTION('',(-1.0,0.0,0.0));
#364=CARTESIAN_POINT('',(0.0,0.0,-63.6));
#365=DIRECTION('',(1.22464679914735E-16,1.0,0.0));
#366=DIRECTION('',(0.0,-0.0,-1.0));
#367=CARTESIAN_POINT('',(0.0,0.0,-62.0));
#368=DIRECTION('',(0.0,0.0,1.0));
#369=DIRECTION('',(-1.0,0.0,0.0));
ENDSEC;
END-ISO-10303-21;
