ISO-10303-21;
HEADER;
FILE_DESCRIPTION(('STEP AP214'),'1');
FILE_NAME('RG0605D5_DC.stp','2024-06-18T01:48:05',(' '),(' '),'Spatial InterOp 3D',' ',' ');
FILE_SCHEMA(('AUTOMOTIVE_DESIGN { 1 0 10303 214 1 1 1 1 }'));
ENDSEC;
DATA;
#1=MECHANICAL_DESIGN_GEOMETRIC_PRESENTATION_REPRESENTATION(' ',(#12,#13,#14),#8);
#2=PRODUCT_DEFINITION_CONTEXT('',#15,'design');
#3=APPLICATION_PROTOCOL_DEFINITION('INTERNATIONAL STANDARD','automotive_design',1994,#15);
#4=PRODUCT_CATEGORY_RELATIONSHIP('NONE','NONE',#16,#17);
#5=SHAPE_DEFINITION_REPRESENTATION(#18,#19);
#6=SHAPE_DEFINITION_REPRESENTATION(#18,#20);
#7=SHAPE_DEFINITION_REPRESENTATION(#18,#21);
#8= (GEOMETRIC_REPRESENTATION_CONTEXT(3)GLOBAL_UNCERTAINTY_ASSIGNED_CONTEXT((#24))GLOBAL_UNIT_ASSIGNED_CONTEXT((#26,#27,#28))REPRESENTATION_CONTEXT('NONE','WORKSPACE'));
#12=STYLED_ITEM('',(#30),#31);
#13=STYLED_ITEM('',(#32),#33);
#14=STYLED_ITEM('',(#34),#35);
#15=APPLICATION_CONTEXT(' ');
#16=PRODUCT_CATEGORY('part','NONE');
#17=PRODUCT_RELATED_PRODUCT_CATEGORY('detail',' ',(#36));
#18=PRODUCT_DEFINITION_SHAPE('NONE','NONE',#37);
#19=ADVANCED_BREP_SHAPE_REPRESENTATION('1',(#31,#38),#8);
#20=ADVANCED_BREP_SHAPE_REPRESENTATION('2',(#33,#39),#8);
#21=ADVANCED_BREP_SHAPE_REPRESENTATION('3',(#35,#40),#8);
#24=UNCERTAINTY_MEASURE_WITH_UNIT(LENGTH_MEASURE(1.0E-06),#26,'','');
#26= (CONVERSION_BASED_UNIT('MILLIMETRE',#43)LENGTH_UNIT()NAMED_UNIT(#46));
#27= (NAMED_UNIT(#48)PLANE_ANGLE_UNIT()SI_UNIT($,.RADIAN.));
#28= (NAMED_UNIT(#48)SOLID_ANGLE_UNIT()SI_UNIT($,.STERADIAN.));
#30=PRESENTATION_STYLE_ASSIGNMENT((#54));
#31=MANIFOLD_SOLID_BREP('1',#55);
#32=PRESENTATION_STYLE_ASSIGNMENT((#56));
#33=MANIFOLD_SOLID_BREP('2',#57);
#34=PRESENTATION_STYLE_ASSIGNMENT((#58));
#35=MANIFOLD_SOLID_BREP('3',#59);
#36=PRODUCT('1','','PART--DESC',(#60));
#37=PRODUCT_DEFINITION('','NONE',#61,#2);
#38=AXIS2_PLACEMENT_3D('',#62,#63,#64);
#39=AXIS2_PLACEMENT_3D('',#65,#66,#67);
#40=AXIS2_PLACEMENT_3D('',#68,#69,#70);
#43=LENGTH_MEASURE_WITH_UNIT(LENGTH_MEASURE(1.0),#71);
#46=DIMENSIONAL_EXPONENTS(1.0,0.0,0.0,0.0,0.0,0.0,0.0);
#48=DIMENSIONAL_EXPONENTS(0.0,0.0,0.0,0.0,0.0,0.0,0.0);
#54=SURFACE_STYLE_USAGE(.BOTH.,#72);
#55=CLOSED_SHELL('',(#73,#74,#75,#76,#77,#78,#79,#80));
#56=SURFACE_STYLE_USAGE(.BOTH.,#81);
#57=CLOSED_SHELL('',(#82,#83,#84,#85));
#58=SURFACE_STYLE_USAGE(.BOTH.,#86);
#59=CLOSED_SHELL('',(#87,#88,#89,#90,#91));
#60=PRODUCT_CONTEXT('',#15,'mechanical');
#61=PRODUCT_DEFINITION_FORMATION_WITH_SPECIFIED_SOURCE(' ','NONE',#36,.NOT_KNOWN.);
#62=CARTESIAN_POINT('',(0.0,0.0,0.0));
#63=DIRECTION('',(0.0,0.0,1.0));
#64=DIRECTION('',(1.0,0.0,0.0));
#65=CARTESIAN_POINT('',(0.0,0.0,0.0));
#66=DIRECTION('',(0.0,0.0,1.0));
#67=DIRECTION('',(1.0,0.0,0.0));
#68=CARTESIAN_POINT('',(0.0,0.0,0.0));
#69=DIRECTION('',(0.0,0.0,1.0));
#70=DIRECTION('',(1.0,0.0,0.0));
#71= (NAMED_UNIT(#46)LENGTH_UNIT()SI_UNIT(.MILLI.,.METRE.));
#72=SURFACE_SIDE_STYLE('',(#93));
#73=ADVANCED_FACE('',(#94),#95,.T.);
#74=ADVANCED_FACE('',(#96),#97,.T.);
#75=ADVANCED_FACE('',(#98),#99,.T.);
#76=ADVANCED_FACE('',(#100),#101,.T.);
#77=ADVANCED_FACE('',(#102),#103,.T.);
#78=ADVANCED_FACE('',(#104),#105,.T.);
#79=ADVANCED_FACE('',(#106),#107,.T.);
#80=ADVANCED_FACE('',(#108),#109,.T.);
#81=SURFACE_SIDE_STYLE('',(#110));
#82=ADVANCED_FACE('',(#111),#112,.T.);
#83=ADVANCED_FACE('',(#113),#114,.T.);
#84=ADVANCED_FACE('',(#115),#116,.T.);
#85=ADVANCED_FACE('',(#117),#118,.F.);
#86=SURFACE_SIDE_STYLE('',(#119));
#87=ADVANCED_FACE('',(#120),#121,.T.);
#88=ADVANCED_FACE('',(#122),#123,.T.);
#89=ADVANCED_FACE('',(#124),#125,.T.);
#90=ADVANCED_FACE('',(#126),#127,.T.);
#91=ADVANCED_FACE('',(#128),#129,.T.);
#93=SURFACE_STYLE_FILL_AREA(#130);
#94=FACE_OUTER_BOUND('',#131,.T.);
#95=CONICAL_SURFACE('',#132,2.6,0.785398163397448);
#96=FACE_OUTER_BOUND('',#133,.T.);
#97=CYLINDRICAL_SURFACE('',#134,3.0);
#98=FACE_OUTER_BOUND('',#135,.T.);
#99=CONICAL_SURFACE('',#136,2.34888346239237,0.26179938779915);
#100=FACE_OUTER_BOUND('',#137,.T.);
#101=CONICAL_SURFACE('',#138,2.34888346239237,0.26179938779915);
#102=FACE_OUTER_BOUND('',#139,.T.);
#103=CYLINDRICAL_SURFACE('',#140,3.0);
#104=FACE_OUTER_BOUND('',#141,.T.);
#105=PLANE('',#142);
#106=FACE_OUTER_BOUND('',#143,.T.);
#107=CONICAL_SURFACE('',#144,2.6,0.785398163397448);
#108=FACE_OUTER_BOUND('',#145,.T.);
#109=PLANE('',#146);
#110=SURFACE_STYLE_FILL_AREA(#147);
#111=FACE_OUTER_BOUND('',#148,.T.);
#112=CYLINDRICAL_SURFACE('',#149,2.34888346239237);
#113=FACE_OUTER_BOUND('',#150,.T.);
#114=CYLINDRICAL_SURFACE('',#151,2.34888346239237);
#115=FACE_OUTER_BOUND('',#152,.T.);
#116=PLANE('',#153);
#117=FACE_OUTER_BOUND('',#154,.T.);
#118=PLANE('',#155);
#119=SURFACE_STYLE_FILL_AREA(#156);
#120=FACE_OUTER_BOUND('',#157,.T.);
#121=CYLINDRICAL_SURFACE('',#158,2.5);
#122=FACE_OUTER_BOUND('',#159,.T.);
#123=SPHERICAL_SURFACE('',#160,2.5);
#124=FACE_OUTER_BOUND('',#161,.T.);
#125=SPHERICAL_SURFACE('',#162,2.5);
#126=FACE_OUTER_BOUND('',#163,.T.);
#127=CYLINDRICAL_SURFACE('',#164,2.5);
#128=FACE_OUTER_BOUND('',#165,.T.);
#129=PLANE('',#166);
#130=FILL_AREA_STYLE('',(#167));
#131=EDGE_LOOP('',(#168,#169,#170,#171));
#132=AXIS2_PLACEMENT_3D('',#172,#173,#174);
#133=EDGE_LOOP('',(#175,#176,#177,#178));
#134=AXIS2_PLACEMENT_3D('',#179,#180,#181);
#135=EDGE_LOOP('',(#182,#183,#184,#185));
#136=AXIS2_PLACEMENT_3D('',#186,#187,#188);
#137=EDGE_LOOP('',(#189,#190,#191,#192));
#138=AXIS2_PLACEMENT_3D('',#193,#194,#195);
#139=EDGE_LOOP('',(#196,#197,#198,#199));
#140=AXIS2_PLACEMENT_3D('',#200,#201,#202);
#141=EDGE_LOOP('',(#203,#204));
#142=AXIS2_PLACEMENT_3D('',#205,#206,#207);
#143=EDGE_LOOP('',(#208,#209,#210,#211));
#144=AXIS2_PLACEMENT_3D('',#212,#213,#214);
#145=EDGE_LOOP('',(#215,#216));
#146=AXIS2_PLACEMENT_3D('',#217,#218,#219);
#147=FILL_AREA_STYLE('',(#220));
#148=EDGE_LOOP('',(#221,#222,#223,#224));
#149=AXIS2_PLACEMENT_3D('',#225,#226,#227);
#150=EDGE_LOOP('',(#228,#229,#230,#231));
#151=AXIS2_PLACEMENT_3D('',#232,#233,#234);
#152=EDGE_LOOP('',(#235,#236));
#153=AXIS2_PLACEMENT_3D('',#237,#238,#239);
#154=EDGE_LOOP('',(#240,#241));
#155=AXIS2_PLACEMENT_3D('',#242,#243,#244);
#156=FILL_AREA_STYLE('',(#245));
#157=EDGE_LOOP('',(#246,#247,#248,#249));
#158=AXIS2_PLACEMENT_3D('',#250,#251,#252);
#159=EDGE_LOOP('',(#253,#254,#255));
#160=AXIS2_PLACEMENT_3D('',#256,#257,#258);
#161=EDGE_LOOP('',(#259,#260,#261));
#162=AXIS2_PLACEMENT_3D('',#262,#263,#264);
#163=EDGE_LOOP('',(#265,#266,#267,#268));
#164=AXIS2_PLACEMENT_3D('',#269,#270,#271);
#165=EDGE_LOOP('',(#272,#273));
#166=AXIS2_PLACEMENT_3D('',#274,#275,#276);
#167=FILL_AREA_STYLE_COLOUR('',#277);
#168=ORIENTED_EDGE('',*,*,#278,.F.);
#169=ORIENTED_EDGE('',*,*,#279,.T.);
#170=ORIENTED_EDGE('',*,*,#280,.F.);
#171=ORIENTED_EDGE('',*,*,#281,.T.);
#172=CARTESIAN_POINT('',(0.0,0.0,0.0));
#173=DIRECTION('',(-0.0,-0.0,-1.0));
#174=DIRECTION('',(-1.0,0.0,0.0));
#175=ORIENTED_EDGE('',*,*,#282,.F.);
#176=ORIENTED_EDGE('',*,*,#279,.F.);
#177=ORIENTED_EDGE('',*,*,#283,.F.);
#178=ORIENTED_EDGE('',*,*,#284,.F.);
#179=CARTESIAN_POINT('',(0.0,0.0,-20.0));
#180=DIRECTION('',(0.0,0.0,-1.0));
#181=DIRECTION('',(1.0,0.0,0.0));
#182=ORIENTED_EDGE('',*,*,#285,.F.);
#183=ORIENTED_EDGE('',*,*,#286,.T.);
#184=ORIENTED_EDGE('',*,*,#287,.F.);
#185=ORIENTED_EDGE('',*,*,#288,.T.);
#186=CARTESIAN_POINT('',(0.0,0.0,-40.0));
#187=DIRECTION('',(-0.0,-0.0,1.0));
#188=DIRECTION('',(-1.0,0.0,0.0));
#189=ORIENTED_EDGE('',*,*,#285,.T.);
#190=ORIENTED_EDGE('',*,*,#289,.T.);
#191=ORIENTED_EDGE('',*,*,#287,.T.);
#192=ORIENTED_EDGE('',*,*,#284,.T.);
#193=CARTESIAN_POINT('',(0.0,0.0,-40.0));
#194=DIRECTION('',(-0.0,-0.0,1.0));
#195=DIRECTION('',(-1.0,0.0,0.0));
#196=ORIENTED_EDGE('',*,*,#282,.T.);
#197=ORIENTED_EDGE('',*,*,#286,.F.);
#198=ORIENTED_EDGE('',*,*,#283,.T.);
#199=ORIENTED_EDGE('',*,*,#290,.F.);
#200=CARTESIAN_POINT('',(0.0,0.0,-20.0));
#201=DIRECTION('',(0.0,0.0,-1.0));
#202=DIRECTION('',(1.0,0.0,0.0));
#203=ORIENTED_EDGE('',*,*,#288,.F.);
#204=ORIENTED_EDGE('',*,*,#289,.F.);
#205=CARTESIAN_POINT('',(0.0,0.0,-40.0));
#206=DIRECTION('',(0.0,0.0,-1.0));
#207=DIRECTION('',(1.0,0.0,0.0));
#208=ORIENTED_EDGE('',*,*,#278,.T.);
#209=ORIENTED_EDGE('',*,*,#291,.T.);
#210=ORIENTED_EDGE('',*,*,#280,.T.);
#211=ORIENTED_EDGE('',*,*,#290,.T.);
#212=CARTESIAN_POINT('',(0.0,0.0,0.0));
#213=DIRECTION('',(-0.0,-0.0,-1.0));
#214=DIRECTION('',(-1.0,0.0,0.0));
#215=ORIENTED_EDGE('',*,*,#281,.F.);
#216=ORIENTED_EDGE('',*,*,#291,.F.);
#217=CARTESIAN_POINT('',(0.0,0.0,0.0));
#218=DIRECTION('',(0.0,0.0,1.0));
#219=DIRECTION('',(-1.0,0.0,0.0));
#220=FILL_AREA_STYLE_COLOUR('',#292);
#221=ORIENTED_EDGE('',*,*,#293,.F.);
#222=ORIENTED_EDGE('',*,*,#294,.F.);
#223=ORIENTED_EDGE('',*,*,#295,.F.);
#224=ORIENTED_EDGE('',*,*,#296,.T.);
#225=CARTESIAN_POINT('',(0.0,0.0,-40.0));
#226=DIRECTION('',(0.0,0.0,-1.0));
#227=DIRECTION('',(-1.0,0.0,0.0));
#228=ORIENTED_EDGE('',*,*,#293,.T.);
#229=ORIENTED_EDGE('',*,*,#297,.T.);
#230=ORIENTED_EDGE('',*,*,#295,.T.);
#231=ORIENTED_EDGE('',*,*,#298,.F.);
#232=CARTESIAN_POINT('',(0.0,0.0,-40.0));
#233=DIRECTION('',(0.0,0.0,-1.0));
#234=DIRECTION('',(-1.0,0.0,0.0));
#235=ORIENTED_EDGE('',*,*,#296,.F.);
#236=ORIENTED_EDGE('',*,*,#297,.F.);
#237=CARTESIAN_POINT('',(0.0,0.0,-45.0));
#238=DIRECTION('',(0.0,0.0,-1.0));
#239=DIRECTION('',(1.0,0.0,0.0));
#240=ORIENTED_EDGE('',*,*,#294,.T.);
#241=ORIENTED_EDGE('',*,*,#298,.T.);
#242=CARTESIAN_POINT('',(0.0,0.0,-40.0));
#243=DIRECTION('',(0.0,0.0,-1.0));
#244=DIRECTION('',(1.0,0.0,0.0));
#245=FILL_AREA_STYLE_COLOUR('',#299);
#246=ORIENTED_EDGE('',*,*,#300,.F.);
#247=ORIENTED_EDGE('',*,*,#301,.F.);
#248=ORIENTED_EDGE('',*,*,#302,.F.);
#249=ORIENTED_EDGE('',*,*,#303,.F.);
#250=CARTESIAN_POINT('',(0.0,0.0,-47.5));
#251=DIRECTION('',(0.0,0.0,-1.0));
#252=DIRECTION('',(1.0,0.0,0.0));
#253=ORIENTED_EDGE('',*,*,#304,.F.);
#254=ORIENTED_EDGE('',*,*,#303,.T.);
#255=ORIENTED_EDGE('',*,*,#305,.F.);
#256=CARTESIAN_POINT('',(0.0,0.0,-47.5));
#257=DIRECTION('',(0.0,0.0,-1.0));
#258=DIRECTION('',(1.0,0.0,0.0));
#259=ORIENTED_EDGE('',*,*,#304,.T.);
#260=ORIENTED_EDGE('',*,*,#305,.T.);
#261=ORIENTED_EDGE('',*,*,#306,.T.);
#262=CARTESIAN_POINT('',(0.0,0.0,-47.5));
#263=DIRECTION('',(0.0,0.0,-1.0));
#264=DIRECTION('',(1.0,0.0,0.0));
#265=ORIENTED_EDGE('',*,*,#300,.T.);
#266=ORIENTED_EDGE('',*,*,#306,.F.);
#267=ORIENTED_EDGE('',*,*,#302,.T.);
#268=ORIENTED_EDGE('',*,*,#307,.F.);
#269=CARTESIAN_POINT('',(0.0,0.0,-47.5));
#270=DIRECTION('',(0.0,0.0,-1.0));
#271=DIRECTION('',(1.0,0.0,0.0));
#272=ORIENTED_EDGE('',*,*,#307,.T.);
#273=ORIENTED_EDGE('',*,*,#301,.T.);
#274=CARTESIAN_POINT('',(0.0,0.0,-45.0));
#275=DIRECTION('',(0.0,0.0,1.0));
#276=DIRECTION('',(-1.0,0.0,0.0));
#277=COLOUR_RGB('',0.756862759590149,0.756862759590149,0.756862759590149);
#278=EDGE_CURVE('',#308,#309,#310,.T.);
#279=EDGE_CURVE('',#308,#311,#312,.T.);
#280=EDGE_CURVE('',#313,#311,#314,.T.);
#281=EDGE_CURVE('',#313,#309,#315,.T.);
#282=EDGE_CURVE('',#311,#316,#317,.T.);
#283=EDGE_CURVE('',#318,#308,#319,.T.);
#284=EDGE_CURVE('',#316,#318,#320,.T.);
#285=EDGE_CURVE('',#318,#321,#322,.T.);
#286=EDGE_CURVE('',#318,#316,#323,.T.);
#287=EDGE_CURVE('',#324,#316,#325,.T.);
#288=EDGE_CURVE('',#324,#321,#326,.T.);
#289=EDGE_CURVE('',#321,#324,#327,.T.);
#290=EDGE_CURVE('',#311,#308,#328,.T.);
#291=EDGE_CURVE('',#309,#313,#329,.T.);
#292=COLOUR_RGB('',0.756862759590149,0.756862759590149,0.756862759590149);
#293=EDGE_CURVE('',#330,#331,#332,.T.);
#294=EDGE_CURVE('',#333,#330,#334,.T.);
#295=EDGE_CURVE('',#335,#333,#336,.T.);
#296=EDGE_CURVE('',#335,#331,#337,.T.);
#297=EDGE_CURVE('',#331,#335,#338,.T.);
#298=EDGE_CURVE('',#330,#333,#339,.T.);
#299=COLOUR_RGB('',0.0,1.0,0.0);
#300=EDGE_CURVE('',#340,#341,#342,.T.);
#301=EDGE_CURVE('',#343,#340,#344,.T.);
#302=EDGE_CURVE('',#345,#343,#346,.T.);
#303=EDGE_CURVE('',#341,#345,#347,.T.);
#304=EDGE_CURVE('',#341,#348,#349,.T.);
#305=EDGE_CURVE('',#348,#345,#350,.T.);
#306=EDGE_CURVE('',#345,#341,#351,.T.);
#307=EDGE_CURVE('',#340,#343,#352,.T.);
#308=VERTEX_POINT('',#353);
#309=VERTEX_POINT('',#354);
#310=LINE('',#355,#356);
#311=VERTEX_POINT('',#357);
#312=CIRCLE('',#358,3.0);
#313=VERTEX_POINT('',#359);
#314=LINE('',#360,#361);
#315=CIRCLE('',#362,2.6);
#316=VERTEX_POINT('',#363);
#317=LINE('',#364,#365);
#318=VERTEX_POINT('',#366);
#319=LINE('',#367,#368);
#320=CIRCLE('',#369,3.0);
#321=VERTEX_POINT('',#370);
#322=LINE('',#371,#372);
#323=CIRCLE('',#373,3.0);
#324=VERTEX_POINT('',#374);
#325=LINE('',#375,#376);
#326=CIRCLE('',#377,2.34888346239237);
#327=CIRCLE('',#378,2.34888346239237);
#328=CIRCLE('',#379,3.0);
#329=CIRCLE('',#380,2.6);
#330=VERTEX_POINT('',#381);
#331=VERTEX_POINT('',#382);
#332=LINE('',#383,#384);
#333=VERTEX_POINT('',#385);
#334=CIRCLE('',#386,2.34888346239237);
#335=VERTEX_POINT('',#387);
#336=LINE('',#388,#389);
#337=CIRCLE('',#390,2.34888346239237);
#338=CIRCLE('',#391,2.34888346239237);
#339=CIRCLE('',#392,2.34888346239237);
#340=VERTEX_POINT('',#393);
#341=VERTEX_POINT('',#394);
#342=LINE('',#395,#396);
#343=VERTEX_POINT('',#397);
#344=CIRCLE('',#398,2.5);
#345=VERTEX_POINT('',#399);
#346=LINE('',#400,#401);
#347=CIRCLE('',#402,2.5);
#348=VERTEX_POINT('',#403);
#349=CIRCLE('',#404,2.5);
#350=CIRCLE('',#405,2.5);
#351=CIRCLE('',#406,2.5);
#352=CIRCLE('',#407,2.5);
#353=CARTESIAN_POINT('',(-3.0,-3.67394039744206E-16,-0.399999999999999));
#354=CARTESIAN_POINT('',(-2.6,3.18408167778312E-16,0.0));
#355=CARTESIAN_POINT('',(-2.6,3.18408167778312E-16,0.0));
#356=VECTOR('',#408,1.0);
#357=CARTESIAN_POINT('',(3.0,3.67394039744206E-16,-0.399999999999999));
#358=AXIS2_PLACEMENT_3D('',#409,#410,#411);
#359=CARTESIAN_POINT('',(2.6,-3.18408167778312E-16,0.0));
#360=CARTESIAN_POINT('',(2.6,-3.18408167778312E-16,0.0));
#361=VECTOR('',#412,1.0);
#362=AXIS2_PLACEMENT_3D('',#413,#414,#415);
#363=CARTESIAN_POINT('',(3.0,-3.67394039744206E-16,-37.57));
#364=CARTESIAN_POINT('',(3.0,3.67394039744206E-16,-20.0));
#365=VECTOR('',#416,1.0);
#366=CARTESIAN_POINT('',(-3.0,-3.67394039744206E-16,-37.57));
#367=CARTESIAN_POINT('',(-3.0,-3.67394039744206E-16,-20.0));
#368=VECTOR('',#417,1.0);
#369=AXIS2_PLACEMENT_3D('',#418,#419,#420);
#370=CARTESIAN_POINT('',(-2.34888346239237,-2.87655261378897E-16,-40.0));
#371=CARTESIAN_POINT('',(-2.34888346239237,-2.87655261378897E-16,-40.0));
#372=VECTOR('',#421,1.0);
#373=AXIS2_PLACEMENT_3D('',#422,#423,#424);
#374=CARTESIAN_POINT('',(2.34888346239237,2.87655261378897E-16,-40.0));
#375=CARTESIAN_POINT('',(2.34888346239237,2.87655261378897E-16,-40.0));
#376=VECTOR('',#425,1.0);
#377=AXIS2_PLACEMENT_3D('',#426,#427,#428);
#378=AXIS2_PLACEMENT_3D('',#429,#430,#431);
#379=AXIS2_PLACEMENT_3D('',#432,#433,#434);
#380=AXIS2_PLACEMENT_3D('',#435,#436,#437);
#381=CARTESIAN_POINT('',(-2.34888346239237,-2.87655261378897E-16,-40.0));
#382=CARTESIAN_POINT('',(-2.34888346239237,-2.87655261378897E-16,-45.0));
#383=CARTESIAN_POINT('',(-2.34888346239237,-2.87655261378897E-16,-40.0));
#384=VECTOR('',#438,1.0);
#385=CARTESIAN_POINT('',(2.34888346239237,2.87655261378897E-16,-40.0));
#386=AXIS2_PLACEMENT_3D('',#439,#440,#441);
#387=CARTESIAN_POINT('',(2.34888346239237,2.87655261378897E-16,-45.0));
#388=CARTESIAN_POINT('',(2.34888346239237,2.87655261378897E-16,-40.0));
#389=VECTOR('',#442,1.0);
#390=AXIS2_PLACEMENT_3D('',#443,#444,#445);
#391=AXIS2_PLACEMENT_3D('',#446,#447,#448);
#392=AXIS2_PLACEMENT_3D('',#449,#450,#451);
#393=CARTESIAN_POINT('',(2.5,0.0,-45.0));
#394=CARTESIAN_POINT('',(2.5,3.06161699786838E-16,-47.5));
#395=CARTESIAN_POINT('',(2.5,3.06161699786838E-16,-47.5));
#396=VECTOR('',#452,1.0);
#397=CARTESIAN_POINT('',(-2.5,-3.06161699786838E-16,-45.0));
#398=AXIS2_PLACEMENT_3D('',#453,#454,#455);
#399=CARTESIAN_POINT('',(-2.5,3.06161699786838E-16,-47.5));
#400=CARTESIAN_POINT('',(-2.5,-3.06161699786838E-16,-47.5));
#401=VECTOR('',#456,1.0);
#402=AXIS2_PLACEMENT_3D('',#457,#458,#459);
#403=CARTESIAN_POINT('',(0.0,0.0,-50.0));
#404=AXIS2_PLACEMENT_3D('',#460,#461,#462);
#405=AXIS2_PLACEMENT_3D('',#463,#464,#465);
#406=AXIS2_PLACEMENT_3D('',#466,#467,#468);
#407=AXIS2_PLACEMENT_3D('',#469,#470,#471);
#408=DIRECTION('',(0.707106781186547,-8.65956056235493E-17,0.707106781186548));
#409=CARTESIAN_POINT('',(0.0,0.0,-0.399999999999999));
#410=DIRECTION('',(0.0,0.0,1.0));
#411=DIRECTION('',(-1.0,0.0,0.0));
#412=DIRECTION('',(0.707106781186547,-8.65956056235493E-17,-0.707106781186548));
#413=CARTESIAN_POINT('',(0.0,0.0,0.0));
#414=DIRECTION('',(0.0,0.0,-1.0));
#415=DIRECTION('',(-1.0,0.0,0.0));
#416=DIRECTION('',(0.0,0.0,-1.0));
#417=DIRECTION('',(-0.0,-0.0,1.0));
#418=CARTESIAN_POINT('',(0.0,0.0,-37.57));
#419=DIRECTION('',(0.0,0.0,-1.0));
#420=DIRECTION('',(-1.0,0.0,0.0));
#421=DIRECTION('',(0.258819045102521,3.16961915143176E-17,-0.965925826289068));
#422=CARTESIAN_POINT('',(0.0,0.0,-37.57));
#423=DIRECTION('',(0.0,0.0,-1.0));
#424=DIRECTION('',(-1.0,0.0,0.0));
#425=DIRECTION('',(0.258819045102521,3.16961915143176E-17,0.965925826289068));
#426=CARTESIAN_POINT('',(0.0,0.0,-40.0));
#427=DIRECTION('',(0.0,0.0,1.0));
#428=DIRECTION('',(-1.0,0.0,0.0));
#429=CARTESIAN_POINT('',(0.0,0.0,-40.0));
#430=DIRECTION('',(0.0,0.0,1.0));
#431=DIRECTION('',(-1.0,0.0,0.0));
#432=CARTESIAN_POINT('',(0.0,0.0,-0.399999999999999));
#433=DIRECTION('',(0.0,0.0,1.0));
#434=DIRECTION('',(-1.0,0.0,0.0));
#435=CARTESIAN_POINT('',(0.0,0.0,0.0));
#436=DIRECTION('',(0.0,0.0,-1.0));
#437=DIRECTION('',(-1.0,0.0,0.0));
#438=DIRECTION('',(0.0,0.0,-1.0));
#439=CARTESIAN_POINT('',(0.0,0.0,-40.0));
#440=DIRECTION('',(0.0,0.0,1.0));
#441=DIRECTION('',(-1.0,0.0,0.0));
#442=DIRECTION('',(-0.0,-0.0,1.0));
#443=CARTESIAN_POINT('',(0.0,0.0,-45.0));
#444=DIRECTION('',(0.0,0.0,1.0));
#445=DIRECTION('',(-1.0,0.0,0.0));
#446=CARTESIAN_POINT('',(0.0,0.0,-45.0));
#447=DIRECTION('',(0.0,0.0,1.0));
#448=DIRECTION('',(-1.0,0.0,0.0));
#449=CARTESIAN_POINT('',(0.0,0.0,-40.0));
#450=DIRECTION('',(0.0,0.0,1.0));
#451=DIRECTION('',(-1.0,0.0,0.0));
#452=DIRECTION('',(0.0,0.0,-1.0));
#453=CARTESIAN_POINT('',(0.0,0.0,-45.0));
#454=DIRECTION('',(0.0,0.0,1.0));
#455=DIRECTION('',(1.0,0.0,0.0));
#456=DIRECTION('',(-0.0,-0.0,1.0));
#457=CARTESIAN_POINT('',(0.0,0.0,-47.5));
#458=DIRECTION('',(0.0,0.0,-1.0));
#459=DIRECTION('',(1.0,0.0,0.0));
#460=CARTESIAN_POINT('',(0.0,0.0,-47.5));
#461=DIRECTION('',(-1.22464679914735E-16,1.0,0.0));
#462=DIRECTION('',(0.0,0.0,-1.0));
#463=CARTESIAN_POINT('',(0.0,0.0,-47.5));
#464=DIRECTION('',(-1.22464679914735E-16,1.0,0.0));
#465=DIRECTION('',(0.0,0.0,-1.0));
#466=CARTESIAN_POINT('',(0.0,0.0,-47.5));
#467=DIRECTION('',(0.0,0.0,-1.0));
#468=DIRECTION('',(1.0,0.0,0.0));
#469=CARTESIAN_POINT('',(0.0,0.0,-45.0));
#470=DIRECTION('',(0.0,0.0,1.0));
#471=DIRECTION('',(1.0,0.0,0.0));
ENDSEC;
END-ISO-10303-21;
