ISO-10303-21;
HEADER;
FILE_DESCRIPTION(('STEP AP214'),'1');
FILE_NAME('XB0606C10_27NPT_AC.stp','2022-07-05T12:28:09',(' '),(' '),'Spatial InterOp 3D',' ',' ');
FILE_SCHEMA(('AUTOMOTIVE_DESIGN { 1 0 10303 214 1 1 1 1 }'));
ENDSEC;
DATA;
#1=MECHANICAL_DESIGN_GEOMETRIC_PRESENTATION_REPRESENTATION(' ',(#12,#13,#14),#8);
#2=PRODUCT_DEFINITION_CONTEXT('',#15,'design');
#3=APPLICATION_PROTOCOL_DEFINITION('INTERNATIONAL STANDARD','automotive_design',1994,#15);
#4=PRODUCT_CATEGORY_RELATIONSHIP('NONE','NONE',#16,#17);
#5=SHAPE_DEFINITION_REPRESENTATION(#18,#19);
#6=SHAPE_DEFINITION_REPRESENTATION(#18,#20);
#7=SHAPE_DEFINITION_REPRESENTATION(#18,#21);
#8= (GEOMETRIC_REPRESENTATION_CONTEXT(3)GLOBAL_UNCERTAINTY_ASSIGNED_CONTEXT((#24))GLOBAL_UNIT_ASSIGNED_CONTEXT((#26,#27,#28))REPRESENTATION_CONTEXT('NONE','WORKSPACE'));
#12=STYLED_ITEM('',(#30),#31);
#13=STYLED_ITEM('',(#32),#33);
#14=STYLED_ITEM('',(#34),#35);
#15=APPLICATION_CONTEXT(' ');
#16=PRODUCT_CATEGORY('part','NONE');
#17=PRODUCT_RELATED_PRODUCT_CATEGORY('detail',' ',(#36));
#18=PRODUCT_DEFINITION_SHAPE('NONE','NONE',#37);
#19=ADVANCED_BREP_SHAPE_REPRESENTATION('1',(#31,#38),#8);
#20=ADVANCED_BREP_SHAPE_REPRESENTATION('2',(#33,#39),#8);
#21=ADVANCED_BREP_SHAPE_REPRESENTATION('3',(#35,#40),#8);
#24=UNCERTAINTY_MEASURE_WITH_UNIT(LENGTH_MEASURE(1.0E-06),#26,'','');
#26= (CONVERSION_BASED_UNIT('MILLIMETRE',#43)LENGTH_UNIT()NAMED_UNIT(#46));
#27= (NAMED_UNIT(#48)PLANE_ANGLE_UNIT()SI_UNIT($,.RADIAN.));
#28= (NAMED_UNIT(#48)SOLID_ANGLE_UNIT()SI_UNIT($,.STERADIAN.));
#30=PRESENTATION_STYLE_ASSIGNMENT((#54));
#31=MANIFOLD_SOLID_BREP('1',#55);
#32=PRESENTATION_STYLE_ASSIGNMENT((#56));
#33=MANIFOLD_SOLID_BREP('2',#57);
#34=PRESENTATION_STYLE_ASSIGNMENT((#58));
#35=MANIFOLD_SOLID_BREP('3',#59);
#36=PRODUCT('1','','PART--DESC',(#60));
#37=PRODUCT_DEFINITION('','NONE',#61,#2);
#38=AXIS2_PLACEMENT_3D('',#62,#63,#64);
#39=AXIS2_PLACEMENT_3D('',#65,#66,#67);
#40=AXIS2_PLACEMENT_3D('',#68,#69,#70);
#43=LENGTH_MEASURE_WITH_UNIT(LENGTH_MEASURE(1.0),#71);
#46=DIMENSIONAL_EXPONENTS(1.0,0.0,0.0,0.0,0.0,0.0,0.0);
#48=DIMENSIONAL_EXPONENTS(0.0,0.0,0.0,0.0,0.0,0.0,0.0);
#54=SURFACE_STYLE_USAGE(.BOTH.,#72);
#55=CLOSED_SHELL('',(#73,#74,#75,#76,#77,#78));
#56=SURFACE_STYLE_USAGE(.BOTH.,#79);
#57=CLOSED_SHELL('',(#80,#81,#82,#83));
#58=SURFACE_STYLE_USAGE(.BOTH.,#84);
#59=CLOSED_SHELL('',(#85,#86,#87,#88));
#60=PRODUCT_CONTEXT('',#15,'mechanical');
#61=PRODUCT_DEFINITION_FORMATION_WITH_SPECIFIED_SOURCE(' ','NONE',#36,.NOT_KNOWN.);
#62=CARTESIAN_POINT('',(0.0,0.0,0.0));
#63=DIRECTION('',(0.0,0.0,1.0));
#64=DIRECTION('',(1.0,0.0,0.0));
#65=CARTESIAN_POINT('',(0.0,0.0,0.0));
#66=DIRECTION('',(0.0,0.0,1.0));
#67=DIRECTION('',(1.0,0.0,0.0));
#68=CARTESIAN_POINT('',(0.0,0.0,0.0));
#69=DIRECTION('',(0.0,0.0,1.0));
#70=DIRECTION('',(1.0,0.0,0.0));
#71= (NAMED_UNIT(#46)LENGTH_UNIT()SI_UNIT(.MILLI.,.METRE.));
#72=SURFACE_SIDE_STYLE('',(#90));
#73=ADVANCED_FACE('',(#91),#92,.T.);
#74=ADVANCED_FACE('',(#93),#94,.T.);
#75=ADVANCED_FACE('',(#95),#96,.T.);
#76=ADVANCED_FACE('',(#97),#98,.T.);
#77=ADVANCED_FACE('',(#99),#100,.T.);
#78=ADVANCED_FACE('',(#101),#102,.T.);
#79=SURFACE_SIDE_STYLE('',(#103));
#80=ADVANCED_FACE('',(#104),#105,.T.);
#81=ADVANCED_FACE('',(#106),#107,.T.);
#82=ADVANCED_FACE('',(#108),#109,.T.);
#83=ADVANCED_FACE('',(#110),#111,.F.);
#84=SURFACE_SIDE_STYLE('',(#112));
#85=ADVANCED_FACE('',(#113),#114,.T.);
#86=ADVANCED_FACE('',(#115),#116,.T.);
#87=ADVANCED_FACE('',(#117),#118,.T.);
#88=ADVANCED_FACE('',(#119),#120,.F.);
#90=SURFACE_STYLE_FILL_AREA(#121);
#91=FACE_OUTER_BOUND('',#122,.T.);
#92=CYLINDRICAL_SURFACE('',#123,3.0);
#93=FACE_OUTER_BOUND('',#124,.T.);
#94=CONICAL_SURFACE('',#125,2.6,0.785398163397448);
#95=FACE_OUTER_BOUND('',#126,.T.);
#96=CONICAL_SURFACE('',#127,2.6,0.785398163397448);
#97=FACE_OUTER_BOUND('',#128,.T.);
#98=CYLINDRICAL_SURFACE('',#129,3.0);
#99=FACE_OUTER_BOUND('',#130,.T.);
#100=PLANE('',#131);
#101=FACE_OUTER_BOUND('',#132,.T.);
#102=PLANE('',#133);
#103=SURFACE_STYLE_FILL_AREA(#134);
#104=FACE_OUTER_BOUND('',#135,.T.);
#105=CONICAL_SURFACE('',#136,3.0,0.0311250325094705);
#106=FACE_OUTER_BOUND('',#137,.T.);
#107=CONICAL_SURFACE('',#138,3.0,0.0311250325094705);
#108=FACE_OUTER_BOUND('',#139,.T.);
#109=PLANE('',#140);
#110=FACE_OUTER_BOUND('',#141,.T.);
#111=PLANE('',#142);
#112=SURFACE_STYLE_FILL_AREA(#143);
#113=FACE_OUTER_BOUND('',#144,.T.);
#114=CONICAL_SURFACE('',#145,2.98536650893108,0.0311250325094705);
#115=FACE_OUTER_BOUND('',#146,.T.);
#116=CONICAL_SURFACE('',#147,2.98536650893108,0.0311250325094705);
#117=FACE_OUTER_BOUND('',#148,.T.);
#118=PLANE('',#149);
#119=FACE_OUTER_BOUND('',#150,.T.);
#120=PLANE('',#151);
#121=FILL_AREA_STYLE('',(#152));
#122=EDGE_LOOP('',(#153,#154,#155,#156));
#123=AXIS2_PLACEMENT_3D('',#157,#158,#159);
#124=EDGE_LOOP('',(#160,#161,#162,#163));
#125=AXIS2_PLACEMENT_3D('',#164,#165,#166);
#126=EDGE_LOOP('',(#167,#168,#169,#170));
#127=AXIS2_PLACEMENT_3D('',#171,#172,#173);
#128=EDGE_LOOP('',(#174,#175,#176,#177));
#129=AXIS2_PLACEMENT_3D('',#178,#179,#180);
#130=EDGE_LOOP('',(#181,#182));
#131=AXIS2_PLACEMENT_3D('',#183,#184,#185);
#132=EDGE_LOOP('',(#186,#187));
#133=AXIS2_PLACEMENT_3D('',#188,#189,#190);
#134=FILL_AREA_STYLE('',(#191));
#135=EDGE_LOOP('',(#192,#193,#194,#195));
#136=AXIS2_PLACEMENT_3D('',#196,#197,#198);
#137=EDGE_LOOP('',(#199,#200,#201,#202));
#138=AXIS2_PLACEMENT_3D('',#203,#204,#205);
#139=EDGE_LOOP('',(#206,#207));
#140=AXIS2_PLACEMENT_3D('',#208,#209,#210);
#141=EDGE_LOOP('',(#211,#212));
#142=AXIS2_PLACEMENT_3D('',#213,#214,#215);
#143=FILL_AREA_STYLE('',(#216));
#144=EDGE_LOOP('',(#217,#218,#219,#220));
#145=AXIS2_PLACEMENT_3D('',#221,#222,#223);
#146=EDGE_LOOP('',(#224,#225,#226,#227));
#147=AXIS2_PLACEMENT_3D('',#228,#229,#230);
#148=EDGE_LOOP('',(#231,#232));
#149=AXIS2_PLACEMENT_3D('',#233,#234,#235);
#150=EDGE_LOOP('',(#236,#237));
#151=AXIS2_PLACEMENT_3D('',#238,#239,#240);
#152=FILL_AREA_STYLE_COLOUR('',#241);
#153=ORIENTED_EDGE('',*,*,#242,.F.);
#154=ORIENTED_EDGE('',*,*,#243,.F.);
#155=ORIENTED_EDGE('',*,*,#244,.F.);
#156=ORIENTED_EDGE('',*,*,#245,.F.);
#157=CARTESIAN_POINT('',(0.0,0.0,-25.855));
#158=DIRECTION('',(0.0,0.0,-1.0));
#159=DIRECTION('',(1.0,0.0,0.0));
#160=ORIENTED_EDGE('',*,*,#246,.F.);
#161=ORIENTED_EDGE('',*,*,#243,.T.);
#162=ORIENTED_EDGE('',*,*,#247,.F.);
#163=ORIENTED_EDGE('',*,*,#248,.T.);
#164=CARTESIAN_POINT('',(0.0,0.0,0.0));
#165=DIRECTION('',(-0.0,-0.0,-1.0));
#166=DIRECTION('',(-1.0,0.0,0.0));
#167=ORIENTED_EDGE('',*,*,#246,.T.);
#168=ORIENTED_EDGE('',*,*,#249,.T.);
#169=ORIENTED_EDGE('',*,*,#247,.T.);
#170=ORIENTED_EDGE('',*,*,#250,.T.);
#171=CARTESIAN_POINT('',(0.0,0.0,0.0));
#172=DIRECTION('',(-0.0,-0.0,-1.0));
#173=DIRECTION('',(-1.0,0.0,0.0));
#174=ORIENTED_EDGE('',*,*,#242,.T.);
#175=ORIENTED_EDGE('',*,*,#251,.F.);
#176=ORIENTED_EDGE('',*,*,#244,.T.);
#177=ORIENTED_EDGE('',*,*,#250,.F.);
#178=CARTESIAN_POINT('',(0.0,0.0,-25.855));
#179=DIRECTION('',(0.0,0.0,-1.0));
#180=DIRECTION('',(1.0,0.0,0.0));
#181=ORIENTED_EDGE('',*,*,#248,.F.);
#182=ORIENTED_EDGE('',*,*,#249,.F.);
#183=CARTESIAN_POINT('',(0.0,0.0,0.0));
#184=DIRECTION('',(0.0,0.0,1.0));
#185=DIRECTION('',(-1.0,0.0,0.0));
#186=ORIENTED_EDGE('',*,*,#245,.T.);
#187=ORIENTED_EDGE('',*,*,#251,.T.);
#188=CARTESIAN_POINT('',(0.0,0.0,-51.71));
#189=DIRECTION('',(0.0,0.0,-1.0));
#190=DIRECTION('',(1.0,0.0,0.0));
#191=FILL_AREA_STYLE_COLOUR('',#252);
#192=ORIENTED_EDGE('',*,*,#253,.F.);
#193=ORIENTED_EDGE('',*,*,#254,.T.);
#194=ORIENTED_EDGE('',*,*,#255,.F.);
#195=ORIENTED_EDGE('',*,*,#256,.T.);
#196=CARTESIAN_POINT('',(0.0,0.0,-51.71));
#197=DIRECTION('',(-0.0,-0.0,1.0));
#198=DIRECTION('',(1.0,0.0,0.0));
#199=ORIENTED_EDGE('',*,*,#253,.T.);
#200=ORIENTED_EDGE('',*,*,#257,.T.);
#201=ORIENTED_EDGE('',*,*,#255,.T.);
#202=ORIENTED_EDGE('',*,*,#258,.T.);
#203=CARTESIAN_POINT('',(0.0,0.0,-51.71));
#204=DIRECTION('',(-0.0,-0.0,1.0));
#205=DIRECTION('',(1.0,0.0,0.0));
#206=ORIENTED_EDGE('',*,*,#257,.F.);
#207=ORIENTED_EDGE('',*,*,#256,.F.);
#208=CARTESIAN_POINT('',(0.0,0.0,-52.18));
#209=DIRECTION('',(0.0,0.0,-1.0));
#210=DIRECTION('',(1.0,0.0,0.0));
#211=ORIENTED_EDGE('',*,*,#254,.F.);
#212=ORIENTED_EDGE('',*,*,#258,.F.);
#213=CARTESIAN_POINT('',(0.0,0.0,-51.71));
#214=DIRECTION('',(0.0,0.0,-1.0));
#215=DIRECTION('',(1.0,0.0,0.0));
#216=FILL_AREA_STYLE_COLOUR('',#259);
#217=ORIENTED_EDGE('',*,*,#260,.F.);
#218=ORIENTED_EDGE('',*,*,#261,.F.);
#219=ORIENTED_EDGE('',*,*,#262,.F.);
#220=ORIENTED_EDGE('',*,*,#263,.T.);
#221=CARTESIAN_POINT('',(0.0,0.0,-52.18));
#222=DIRECTION('',(-0.0,-0.0,1.0));
#223=DIRECTION('',(1.0,0.0,0.0));
#224=ORIENTED_EDGE('',*,*,#260,.T.);
#225=ORIENTED_EDGE('',*,*,#264,.T.);
#226=ORIENTED_EDGE('',*,*,#262,.T.);
#227=ORIENTED_EDGE('',*,*,#265,.F.);
#228=CARTESIAN_POINT('',(0.0,0.0,-52.18));
#229=DIRECTION('',(-0.0,-0.0,1.0));
#230=DIRECTION('',(1.0,0.0,0.0));
#231=ORIENTED_EDGE('',*,*,#264,.F.);
#232=ORIENTED_EDGE('',*,*,#263,.F.);
#233=CARTESIAN_POINT('',(0.0,0.0,-63.0));
#234=DIRECTION('',(0.0,0.0,-1.0));
#235=DIRECTION('',(1.0,0.0,0.0));
#236=ORIENTED_EDGE('',*,*,#265,.T.);
#237=ORIENTED_EDGE('',*,*,#261,.T.);
#238=CARTESIAN_POINT('',(0.0,0.0,-52.18));
#239=DIRECTION('',(0.0,0.0,-1.0));
#240=DIRECTION('',(1.0,0.0,0.0));
#241=COLOUR_RGB('',0.756862759590149,0.756862759590149,0.756862759590149);
#242=EDGE_CURVE('',#266,#267,#268,.T.);
#243=EDGE_CURVE('',#269,#266,#270,.T.);
#244=EDGE_CURVE('',#271,#269,#272,.T.);
#245=EDGE_CURVE('',#267,#271,#273,.T.);
#246=EDGE_CURVE('',#269,#274,#275,.T.);
#247=EDGE_CURVE('',#276,#266,#277,.T.);
#248=EDGE_CURVE('',#276,#274,#278,.T.);
#249=EDGE_CURVE('',#274,#276,#279,.T.);
#250=EDGE_CURVE('',#266,#269,#280,.T.);
#251=EDGE_CURVE('',#271,#267,#281,.T.);
#252=COLOUR_RGB('',0.443137258291245,0.443137258291245,0.776470601558685);
#253=EDGE_CURVE('',#282,#283,#284,.T.);
#254=EDGE_CURVE('',#282,#285,#286,.T.);
#255=EDGE_CURVE('',#287,#285,#288,.T.);
#256=EDGE_CURVE('',#287,#283,#289,.T.);
#257=EDGE_CURVE('',#283,#287,#290,.T.);
#258=EDGE_CURVE('',#285,#282,#291,.T.);
#259=COLOUR_RGB('',0.0,1.0,0.0);
#260=EDGE_CURVE('',#292,#293,#294,.T.);
#261=EDGE_CURVE('',#295,#292,#296,.T.);
#262=EDGE_CURVE('',#297,#295,#298,.T.);
#263=EDGE_CURVE('',#297,#293,#299,.T.);
#264=EDGE_CURVE('',#293,#297,#300,.T.);
#265=EDGE_CURVE('',#292,#295,#301,.T.);
#266=VERTEX_POINT('',#302);
#267=VERTEX_POINT('',#303);
#268=LINE('',#304,#305);
#269=VERTEX_POINT('',#306);
#270=CIRCLE('',#307,3.0);
#271=VERTEX_POINT('',#308);
#272=LINE('',#309,#310);
#273=CIRCLE('',#311,3.0);
#274=VERTEX_POINT('',#312);
#275=LINE('',#313,#314);
#276=VERTEX_POINT('',#315);
#277=LINE('',#316,#317);
#278=CIRCLE('',#318,2.6);
#279=CIRCLE('',#319,2.6);
#280=CIRCLE('',#320,3.0);
#281=CIRCLE('',#321,3.0);
#282=VERTEX_POINT('',#322);
#283=VERTEX_POINT('',#323);
#284=LINE('',#324,#325);
#285=VERTEX_POINT('',#326);
#286=CIRCLE('',#327,3.0);
#287=VERTEX_POINT('',#328);
#288=LINE('',#329,#330);
#289=CIRCLE('',#331,2.98536650893108);
#290=CIRCLE('',#332,2.98536650893108);
#291=CIRCLE('',#333,3.0);
#292=VERTEX_POINT('',#334);
#293=VERTEX_POINT('',#335);
#294=LINE('',#336,#337);
#295=VERTEX_POINT('',#338);
#296=CIRCLE('',#339,2.98536650893108);
#297=VERTEX_POINT('',#340);
#298=LINE('',#341,#342);
#299=CIRCLE('',#343,2.6484848634722);
#300=CIRCLE('',#344,2.6484848634722);
#301=CIRCLE('',#345,2.98536650893108);
#302=CARTESIAN_POINT('',(3.0,3.67394039744206E-16,-0.399999999999999));
#303=CARTESIAN_POINT('',(3.0,0.0,-51.71));
#304=CARTESIAN_POINT('',(3.0,3.67394039744206E-16,-25.855));
#305=VECTOR('',#346,1.0);
#306=CARTESIAN_POINT('',(-3.0,3.67394039744206E-16,-0.399999999999999));
#307=AXIS2_PLACEMENT_3D('',#347,#348,#349);
#308=CARTESIAN_POINT('',(-3.0,-3.67394039744206E-16,-51.71));
#309=CARTESIAN_POINT('',(-3.0,-3.67394039744206E-16,-25.855));
#310=VECTOR('',#350,1.0);
#311=AXIS2_PLACEMENT_3D('',#351,#352,#353);
#312=CARTESIAN_POINT('',(-2.6,3.18408167778312E-16,0.0));
#313=CARTESIAN_POINT('',(-2.6,3.18408167778312E-16,0.0));
#314=VECTOR('',#354,1.0);
#315=CARTESIAN_POINT('',(2.6,-3.18408167778312E-16,0.0));
#316=CARTESIAN_POINT('',(2.6,-3.18408167778312E-16,0.0));
#317=VECTOR('',#355,1.0);
#318=AXIS2_PLACEMENT_3D('',#356,#357,#358);
#319=AXIS2_PLACEMENT_3D('',#359,#360,#361);
#320=AXIS2_PLACEMENT_3D('',#362,#363,#364);
#321=AXIS2_PLACEMENT_3D('',#365,#366,#367);
#322=CARTESIAN_POINT('',(3.0,0.0,-51.71));
#323=CARTESIAN_POINT('',(2.98536650893108,0.0,-52.18));
#324=CARTESIAN_POINT('',(3.0,3.67394039744206E-16,-51.71));
#325=VECTOR('',#368,1.0);
#326=CARTESIAN_POINT('',(-3.0,-3.67394039744206E-16,-51.71));
#327=AXIS2_PLACEMENT_3D('',#369,#370,#371);
#328=CARTESIAN_POINT('',(-2.98536650893108,-3.65601953944416E-16,-52.18));
#329=CARTESIAN_POINT('',(-3.0,-3.67394039744206E-16,-51.71));
#330=VECTOR('',#372,1.0);
#331=AXIS2_PLACEMENT_3D('',#373,#374,#375);
#332=AXIS2_PLACEMENT_3D('',#376,#377,#378);
#333=AXIS2_PLACEMENT_3D('',#379,#380,#381);
#334=CARTESIAN_POINT('',(2.98536650893108,0.0,-52.18));
#335=CARTESIAN_POINT('',(2.6484848634722,0.0,-63.0));
#336=CARTESIAN_POINT('',(2.98536650893108,3.65601953944416E-16,-52.18));
#337=VECTOR('',#382,1.0);
#338=CARTESIAN_POINT('',(-2.98536650893108,-3.65601953944416E-16,-52.18));
#339=AXIS2_PLACEMENT_3D('',#383,#384,#385);
#340=CARTESIAN_POINT('',(-2.6484848634722,-3.24345851064145E-16,-63.0));
#341=CARTESIAN_POINT('',(-2.98536650893108,-3.65601953944416E-16,-52.18));
#342=VECTOR('',#386,1.0);
#343=AXIS2_PLACEMENT_3D('',#387,#388,#389);
#344=AXIS2_PLACEMENT_3D('',#390,#391,#392);
#345=AXIS2_PLACEMENT_3D('',#393,#394,#395);
#346=DIRECTION('',(0.0,0.0,-1.0));
#347=CARTESIAN_POINT('',(0.0,0.0,-0.399999999999999));
#348=DIRECTION('',(0.0,0.0,1.0));
#349=DIRECTION('',(-1.0,0.0,0.0));
#350=DIRECTION('',(-0.0,-0.0,1.0));
#351=CARTESIAN_POINT('',(0.0,0.0,-51.71));
#352=DIRECTION('',(0.0,0.0,-1.0));
#353=DIRECTION('',(1.0,0.0,0.0));
#354=DIRECTION('',(0.707106781186547,-8.65956056235493E-17,0.707106781186548));
#355=DIRECTION('',(0.707106781186547,-8.65956056235493E-17,-0.707106781186548));
#356=CARTESIAN_POINT('',(0.0,0.0,0.0));
#357=DIRECTION('',(0.0,0.0,-1.0));
#358=DIRECTION('',(-1.0,0.0,0.0));
#359=CARTESIAN_POINT('',(0.0,0.0,0.0));
#360=DIRECTION('',(0.0,0.0,-1.0));
#361=DIRECTION('',(-1.0,0.0,0.0));
#362=CARTESIAN_POINT('',(0.0,0.0,-0.399999999999999));
#363=DIRECTION('',(0.0,0.0,1.0));
#364=DIRECTION('',(-1.0,0.0,0.0));
#365=CARTESIAN_POINT('',(0.0,0.0,-51.71));
#366=DIRECTION('',(0.0,0.0,-1.0));
#367=DIRECTION('',(1.0,0.0,0.0));
#368=DIRECTION('',(-0.0311200072654622,-3.81110172870906E-18,-0.999515655278994));
#369=CARTESIAN_POINT('',(0.0,0.0,-51.71));
#370=DIRECTION('',(0.0,0.0,-1.0));
#371=DIRECTION('',(1.0,0.0,0.0));
#372=DIRECTION('',(-0.0311200072654622,-3.81110172870906E-18,0.999515655278994));
#373=CARTESIAN_POINT('',(0.0,0.0,-52.18));
#374=DIRECTION('',(-0.0,0.0,1.0));
#375=DIRECTION('',(1.0,0.0,0.0));
#376=CARTESIAN_POINT('',(0.0,0.0,-52.18));
#377=DIRECTION('',(-0.0,0.0,1.0));
#378=DIRECTION('',(1.0,0.0,0.0));
#379=CARTESIAN_POINT('',(0.0,0.0,-51.71));
#380=DIRECTION('',(0.0,0.0,-1.0));
#381=DIRECTION('',(1.0,0.0,0.0));
#382=DIRECTION('',(-0.0311200072654622,-3.81110172870906E-18,-0.999515655278994));
#383=CARTESIAN_POINT('',(0.0,0.0,-52.18));
#384=DIRECTION('',(-0.0,0.0,1.0));
#385=DIRECTION('',(1.0,0.0,0.0));
#386=DIRECTION('',(-0.0311200072654622,-3.81110172870906E-18,0.999515655278994));
#387=CARTESIAN_POINT('',(0.0,0.0,-63.0));
#388=DIRECTION('',(-0.0,0.0,1.0));
#389=DIRECTION('',(1.0,0.0,0.0));
#390=CARTESIAN_POINT('',(0.0,0.0,-63.0));
#391=DIRECTION('',(-0.0,0.0,1.0));
#392=DIRECTION('',(1.0,0.0,0.0));
#393=CARTESIAN_POINT('',(0.0,0.0,-52.18));
#394=DIRECTION('',(-0.0,0.0,1.0));
#395=DIRECTION('',(1.0,0.0,0.0));
ENDSEC;
END-ISO-10303-21;
